Vandenberg - How Long Solo Chords & Tabs

 

How Long Solo Chords & Tabs

Vandenberg Chords & Tabs

Version: 1 Type: Tab 0 ratings
1 star 2 stars 3 stars 4 stars 5 stars
comments

How Long Solo Tab

Vandenberg - How Long (Solo)

Hi folks,
This is my first time ever to create and submit a tab-file. 
I'm writing this without a guitar in reach (I'm working...),
so don't mind possible mistakes. 
I heard this song by Vandenberg on a 'Countdown Rock Classics'-CD 
and I really liked the 80's-style solo. I searched all over the internet,
but I couldn't find any tabs of this band (besides Burning Heart).
So, here's another one, have fun!
Cheers, 
Daniel.  


Solo
|--------------------------------|-------------------------------|
|--------------------------------|---12-14-15-14-12-12~----------|
|-----11-12-14-------------------|-------------------------------|
|--------------12s14~------------|-------------------------------|
|--------------------------------|-------------------------------|
|--------------------------------|-------------------------------|

|--------------------------------|-------------------------------|
|--------------------------------|-------------------------------|
|--------------------------------|-------------------------------|
|--------------------------------|-------------------------------|
|------4b6b4-2-0~----------------|---2-4-2b4b2~------(Fill A)----|
|--------------------------------|-------------------------------|


[ Tab from: http://www.guitartabs.cc/tabs/v/vandenberg/how_long_solo_tab.html ]
Fill A (Played very fast)
|-----------------------------------------------|
|-----------------------------------------------|
|--------------------------------18p16----------|
|-----------17p16-------------16-------19-------|
|--------16-------19----17h19-------------------|
|--17h19----------------------------------------|



Solo (continued...)
|----------------------15h17p15p14h15-|---19--17--15--14--19----------------|
|---15-17-17b19-17~-------------------|-17--17--17--17--15----15p14---------|
|-x-----------------------------------|-----------------------------16~-----|
|-------------------------------------|-------------------------------------|
|-------------------------------------|-------------------------------------|
|-------------------------------------|-------------------------------------|

|---15-17-17b19-17~-------------------|---19-21-21h22-19~-------------------|
|-------------------------------------|-------------------------------------|
|-------------------------------------|-------------------------------------|
|-------------------------------------|-------------------------------------|
|-------------------------------------|-------------------------------------|
|-------------------------------------|-------------------------------------|
Comments