Vanden Plas - Crown Of Thorns Chords & Tabs

 

Crown Of Thorns Chords & Tabs

Vanden Plas Chords & Tabs

Version: 1 Type: Tab 0 ratings
1 star 2 stars 3 stars 4 stars 5 stars
comments

Crown Of Thorns Tab

   
Vanden Plas,Crown Of Thorns.
Tabbed by Wretched.
  
Author/Artist: Vanden Plas
Title: Crown of thorns
Album: The God Thing
Transcribed by: Dmetal
Email: dmetal@free.fr
Tabs explanations :
h : hammer on
p : pull off
b : bend
r : release bend
/ : slide up
\ : slide down

Tune down 1/2 step



-|--------|--------|--------|--------|---------------------------|------------
-|--------|--------|--------|--------|---------------------------|------------
-|-6------|-8------|-9------|-6---\--|---------------------------|------------
-|--------|--------|--------|--------|-6-6-6-6--6-6-6-6-6--6-6-6-|-7-7-7-7----
-|--------|--------|--------|--------|-4-4-4-4--4-4-4-4-4--4-4-4-|-6-6-6-6----
-|--------|--------|--------|--------|---------------------------|------------
                                                                              

------------------|---------------------------|-------------------------------
------------------|---------------------------|-------------------------------
------------------|---------------------------|--9--9--9--9---9--9--9--9--9---
-7-7-7-7-7--7-7-7-|-9-9-9-9--9-9-9-9-9--9-9-9-|-11-11-11-11--11-11-11-11-11---
-6-6-6-6-6--6-6-6-|-7-7-7-7--7-7-7-7-7--7-7-7-|-------------------------------
------------------|---------------------------|-------------------------------
                                                                              

----------|---------------------------|---------------------------|-----------
----------|---------------------------|---------------------------|-----------
--9--9--9-|-6-6-6-6--6-6-6-6-6--6-6-6-|-8-8-8-8--8-8-8-8-8--8-8-8-|-----------
-11-11-11-|-6-6-6-6--6-6-6-6-6--6-6-6-|-7-7-7-7--7-7-7-7-7--7-7-7-|-----------
----------|-4-4-4-4--4-4-4-4-4--4-4-4-|-6-6-6-6--6-6-6-6-6--6-6-6-|-----/7----
----------|---------------------------|---------------------------|-4---------
                                                                              

----------------|---------------------------|---------------------------|-----
----------------|---------------------------|---------------------------|-----
----------------|-6-6-6-6--6-6-6-6-6--6-6-6-|-8-8-8-8--8-8-8-8-8--8-8-8-|-----
----------------|-6-6-6-6--6-6-6-6-6--6-6-6-|-7-7-7-7--7-7-7-7-7--7-7-7-|-----
--------/7--7-6-|-4-4-4-4--4-4-4-4-4--4-4-4-|-6-6-6-6--6-6-6-6-6--6-6-6-|-----
-4--5-----------|---------------------------|---------------------------|-4---
                                                                              

----------------------|---------------------------|--------------------------
----------------------|---------------------------|--------------------------
----------------------|-6-6-6-6--6-6-6-6-6--6-6-6-|-8-8-8-8--8-8-8-8-8--8-8-8
----------------------|-6-6-6-6--6-6-6-6-6--6-6-6-|-7-7-7-7--7-7-7-7-7--7-7-7
-/7-----------/7--7-6-|-4-4-4-4--4-4-4-4-4--4-4-4-|-6-6-6-6--6-6-6-6-6--6-6-6
-------4--5-----------|---------------------------|--------------------------
                                                                              

-|------------------------|----------------------------|--------------------|
-|------------------------|-------0--------------------|--------------------|
-|-9-------9---------9--9-|--9----9--9/11-11-----9--9\-|-6-6-6-6--6-6-6-6-6-|
-|-9-------9--------11-11-|-11---11-11/13-13----11-11\-|-6-6-6-6--6-6-6-6-6-|
-|----9h10----------------|----------------------------|-4-4-4-4--4-4-4-4-4-|
-|------------------------|----------------------------|--------------------|
                                                                              

|---------------------------|------------------------|------------------------
|---------------------------|------------------------|------------------------
|-8-8-8-8--8-8-8-8-8--8-8-8-|-9-------9---------9--9-|--9----9--9/11-11-----9-
|-7-7-7-7--7-7-7-7-7--7-7-7-|-9-------9--------11-11-|-11---11-11/13-13----11-
|-6-6-6-6--6-6-6-6-6--6-6-6-|----9h10----------------|------------------------
|---------------------------|------------------------|------------------------
                                                                              
                                                            Solo 1
-----|----------------------|-----------------------------|-------------------
-----|----------------------|-9-9--9----------------------|-------------------
--9\-|-9--------------------|-9-9--9----------------------|-9-9---------------
-11\-|-9--11p9-11------9-11-|--------11p9-11--9-----------|-9-9--11p9-11--9---
-----|----------------------|-------------------11-10-9-9-|-------------------
-----|----------------------|-----------------------------|-------------------
                                                                              

-----------------------------------|----------------------|-------------------
-----------------------------------|----------------------|-------------------
-----------------------------------|-9--------------------|-9-9--9------------
------11---------------------------|-9--11p9-11------9h11-|-9-9--9------------
-11-9---------9b11r9\7-----/11-----|----------------------|--------11p9-11----
---------9-12----------9-7-----x\--|----------------------|-------------------
                                                                              

------------------|--------------9-11-12-11-9-11p9----9---------------9-------
------------------|-12b14------x-------------------12---12-10-9h10h12---12----
-11b13r11p9-11b13-|-----------x-----------------------------------------------
------------------|-----------------------------------------------------------
------------------|-----------------------------------------------------------
------------------|-----------------------------------------------------------
                                                                              

------------------------------------------------------|------------------|----
-10p9-10p9---9----------------------------------------|------------------|----
----------11---11-9-11p9------------------------------|-8-----9-----6----|-8--
-------------------------11-9---11p9------------------|------------------|----
-------------------------------------11-9---9p7-------|------------------|----
------------------------------------------------9-7---|------------------|----
                                                                              
[ Tab from: http://www.guitartabs.cc/tabs/v/vanden_plas/crown_of_thorns_tab.html ]
------------|------------------|--------------------------------|-------------
------------|------------------|--------------------------------|-------------
-9-----6----|-8-----9-----6----|-8b9-8b9r8-6-8---6h8-8h9h11p9p8-|-9-----11----
------------|------------------|--------------------------------|-------------
------------|------------------|--------------------------------|-------------
------------|------------------|--------------------------------|-------------
                                                                              

------|-------------------|------------------------------|--------------------
------|-------------------|-12----12---------------------|--------------------
-8----|-9-----11-----8----|-11b13-11b13r11p9-11---8-9-11-|-9p8p6h8h9p8p6\4h6h-
------|-------------------|------------------------------|--------------------
------|-------------------|------------------------------|--------------------
------|-------------------|------------------------------|--------------------
                                                                              
                                                                         x4
---------------------------||---------9----------------9-------------------||
---------------------------||10-----------------------------------10-------||
-8p6p4---------------11-13-||---13-11---13-11-11-13-11---13-11-13----13-11-||
-------7p6p4---------------||----------------------------------------------||
------------7-------------||----------------------------------------------||
---------------7-4---------||----------------------------------------------||
                                                                              
                                             x12  Solo 2
||----------9----------------9------------------||--------------------------|
||-10---------------10------------------10------||--------------------------|
||----13-11---13-11----13-11---13-11-13----13-11||-13b14-13b14-r13-11-13-13-|
||----------------------------------------------||--------------------------|
||----------------------------------------------||--------------------------|
||----------------------------------------------||--------------------------|
                                                                              

|----------------------------------------------------------------------------
|-8h9p8p7---7h8h9p8p7---7h8h9p8-7h8h9p8p7---7h8h9p8-7h8h9p8p7---7h8h9p8p7----
|---------9-----------9-------------------9-------------------9-----------9--
|----------------------------------------------------------------------------
|----------------------------------------------------------------------------
|----------------------------------------------------------------------------
                                                                              

---------------------------------------|--------------------------------------
---------------------------------------|--------9-10-12--9-10-12/14--10-12----
-8h9p8h9p8h9-9b11-----9-8b9r8b9r8b9r8--|-8-9-11-------------------------------
---------------------------------------|--------------------------------------
---------------------------------------|--------------------------------------
---------------------------------------|--------------------------------------
                                                                              

----11-12-14-12-11----------------------11-12-14-12-11------------------------
-14----------------14-12-10-10-10-12-14----------------14-12-10-10-10-12-14---
------------------------------------------------------------------------------
------------------------------------------------------------------------------
------------------------------------------------------------------------------
------------------------------------------------------------------------------
                                                                              

----------12-14-16-14-12----------------------12-14-16-14-12------------------
-12-14-16----------------16-14-12-12-12-14-16----------------16-14-12-12-12---
------------------------------------------------------------------------------
------------------------------------------------------------------------------
------------------------------------------------------------------------------
------------------------------------------------------------------------------
                                                                              

----------------14-16-17-16-14----------------------14-16-17-16-14------------
-14-16-14-16-17----------------17-16-14-14-14-16-17----------------17-16-14---
------------------------------------------------------------------------------
------------------------------------------------------------------------------
------------------------------------------------------------------------------
------------------------------------------------------------------------------
                                                                              

----------------------16-17-19-17-16----------------------16-17-19-17-16------
-14-14-16-17-16-17-19----------------19-17-16-16-16-17-19----------------19---
------------------------------------------------------------------------------
------------------------------------------------------------------------------
------------------------------------------------------------------------------
------------------------------------------------------------------------------
                                                                              

-------------------16-17-19-17-16----------------------16-19-16-17-16---------
-17-16-16-16-17-19----------------19-17-16-16-16-17-19----------------19-17---
------------------------------------------------------------------------------
------------------------------------------------------------------------------
------------------------------------------------------------------------------
------------------------------------------------------------------------------
                                                                              

----------------16-19-x--19b21----------19-17-16h17p16----16------------------
-16-16-16-17-19-------x--19b---------------------------19----17----17-17b19r--
----------------------------------------------------------------16------------
------------------------------------------------------------------------------
------------------------------------------------------------------------------
------------------------------------------------------------------------------
                                                                              
                                                                fade out
------------------------------------------------------------------------------
-16-17-17b19r17b19r17b19r17-17-16h17-16b17r16b17r16b17r16---------------------
------------------------------------------------------------------------------
------------------------------------------------------------------------------
------------------------------------------------------------------------------
------------------------------------------------------------------------------
                                                                              
 
:: Ultimate Guitar Archive :: 
http://www.ultimate-guitar.com 
Comments