Vandals - The Unseen Tears Of The Albacore Chords & Tabs

 

The Unseen Tears Of The Albacore Chords & Tabs

Vandals Chords & Tabs

Version: 1 Type: Tab 0 ratings
1 star 2 stars 3 stars 4 stars 5 stars
comments

The Unseen Tears Of The Albacore Tab

h=hammer on
p=pull off

Guitar 1 Intro:

E|---------------------------|
B|--------1--3-1-------------|
G|-2-2--4--------4-0---------|
D|---------------------------|
A|---------------------------|
E|---------------------------|

E|---------------------------|
B|---------------------------|
G|-4h5p4h5p4h5--7--5p4h5p4---|
D|---------------------------|
A|---------------------------|
E|---------------------------|

E|---------------------------|
B|--------1--3-1-------------|
G|-2-2--4--------4h5p4h5-2---|
D|---------------------------|
A|---------------------------|
E|---------------------------|

Guitar 2 Intro:

E|--------------------------|
B|--------------------------|
G|--------------------------|
D|------10-10--------7-7----|
A|-7-7--8--8--10-10--5-5----|
E|-5-5--------8--8----------|

Pre-verse:
[ Tab from: http://www.guitartabs.cc/tabs/v/vandals/the_unseen_tears_of_the_albacore_tab.html ]
E|---------------------------|
B|-4-6--4-6-9-8--7h8p7h8p7---|
G|---------------------------|
D|---------------------------|
A|---------------------------|
E|---------------------------|

Verse: Play all notes 4x!

E|---------------------------|
B|---------------------------|
G|---------------------------|
D|----10-----7---------------|
A|-7--8--10--5---------------|
E|-5-----8-------------------|

End verse:

E|---------------------------|
B|-3-1-----------5~~---------|
G|-----4-0-2~~---------------|
D|---------------------------|
A|---------------------------|
E|---------------------------|

Chorus: Play all notes 8x!

E|---------------------------|
B|---------------------------|
G|---------------------------|
D|----10-----7--10--12-------|
A|-7--8--10--5--8---10--7----|
E|-5-----8--------------5----|

Solo: 2x

E|------------------5--------|
B|-----1--3-1----------------|
G|-2-4--------4-1-4----------|
D|---------------------------|
A|---------------------------|
E|---------------------------|
Comments