Vandals - Power Mustache Chords & Tabs

 

Power Mustache Chords & Tabs

Vandals Chords & Tabs

Version: 1 Type: Bass Tab 0 ratings
1 star 2 stars 3 stars 4 stars 5 stars
comments

Power Mustache Bass Tab

-----------------------------------------------------------------------------
                  POWER MUSHTASHE        the VANDELS
-----------------------------------------------------------------------------

blythe@pathcom.com
www.geocities.com/SunsetStrip/Backstage/1711

>Means Strum

INTRO
G]-----------------------------------]
D]-----------------------------------]
A]----/-12----/12----/-12----/-12----]
E]-5-/-----5-/----5-/-----5-/-----5>-]
[ Tab from: http://www.guitartabs.cc/tabs/v/vandals/power_mustache_btab.html ]
VERSEx2
G]----------------------------]
D]----------------------------]
A]----3>-------3>----3>-------]
E]-5>----3>-5>----5>----3>-5>-]

PRE-CHORUS(either ending is cool)
G]-------------------------------]
D]----------(10-9-10-9-10-9-10-)-]
A]----------3>-------------------]
E]-0>-3>-5>----------------------]

CHORUSx4
G]-------------]
D]-------------]
A]-7>-5>-4>-3>-]
E]-------------]

VERSE
PRE CHORUS
CHORUS
INTRO
VERSE

OUTRO
G]-----------------------------------------]
D]-----------------------------------------]
A]-----------------------------------------]
E]-5>-4-3-2-5>-4-3-2-5>-4-3-2--5--5--5--5--]




Comments