Vandals - Pirates Life Chords & Tabs

 

Pirates Life Chords & Tabs

Vandals Chords & Tabs

Version: 2 Type: Bass Tab 0 ratings
1 star 2 stars 3 stars 4 stars 5 stars
comments

Pirates Life Bass Tab

Artist: The Vandals
Song: Pirates Life
Album: Peace thru Vandalism

VERSE/INTRO

G----------------------------
D----------------------------
A---------3-5-------8-8-8-7-5
E----5555------5555----------



CHORUS

G------------------
D------------------
A------------------
E----7>--5>--3>--2>



SOLO 2X

[ Tab from: http://www.guitartabs.cc/tabs/v/vandals/pirates_life_btab_ver_2.html ]
G----------------------5-5----------------------------
D----5-5-5-5-5-5-5-5-5------1-3-5-----5-6--6--6--3--3-
A-----------------------------------------------------
E-----------------------------------------------------


G------------------------------
D----5--5--1--1----3--3-3-5-6-8
A------------------------------
E------------------------------
Comments