Vandals - People That Are Going To Hell Chords & Tabs

 

People That Are Going To Hell Chords & Tabs

Vandals Chords & Tabs

Version: 2 Type: Tab 0 ratings
1 star 2 stars 3 stars 4 stars 5 stars
comments

People That Are Going To Hell Tab

THE VANDALS-PEOPLE THAT ARE GOING TO HELL

intro 
e|--------------------------------------------------------------------| 
B|--------------------------------------------------------------------| 
G|--------------------------------------------------------------------| 
D|-4-------------------4------------------4---------------------------| 
A|---7-5-7--5--4--5------7-5-7--5--4-5-7----7-5-7--5--4--5---4--5-----| 
E|------------------5--------------------------------------5----------| 

e|--------------------------------------------------------------------| 
B|--------------------------------------------------------------------| 
G|--------------------------------------------------------------------| 
D|-4------------------------------------------------------------------| 
A|---7-5-7--5--4--5---------------------------------------------------| 
E|------------------5-------------------------------------------------| 
[ Tab from: http://www.guitartabs.cc/tabs/v/vandals/people_that_are_going_to_hell_tab_ver_2.html ]
verse 
e|--------------------------------------------------------------------| 
B|--------------------------------------------------------------------| 
G|-7-7-7-7---------4-4-4-4-----------------7-7-7-7--------------------| 
D|-7-7-7-7-7-7-7-7-4-4-4-4-4-4-4-4-5-5-5-5-7-7-7-7-7-7-7-7------------| 
A|-5-5-5-5-7-7-7-7-2-2-2-2-4-4-4-4-5-5-5-5-5-5-5-5-7-7-7-7------------| 
E|---------5-5-5-5---------2-2-2-2-3-3-3-3---------5-5-5-5------------| 

e|--------------------------------------------------------------------| 
B|--------------------------------------------------------------------| 
G|-7--7--7--7--------------7--7--7--7--9--9--9--9---------------------| 
D|-7--7--7--7--5--5--5--5--7--7--7--7--9--9--9--9---------------------| 
A|-5--5--5--5--5--5--5--5--5--5--5--5--7--7--7--7---------------------| 
E|-------------3--3--3--3---------------------------------------------| 

chorus 
e|--------------------------------------------------------------------| 
B|--------------------------------(played after first chorus only)----| 
G|-7-7-7-7---------7-7-----7-7----------------------------------------| 
D|-7-7-7-7-5-5-5-5-7-7-7-7-7-7----4-----------------------------------| 
A|-5-5-5-5-5-5-5-5-5-5-7-7-5-5------7-5-7--5--4-5---------------------| 
E|---------3-3-3-3-----5-5--------------------------------------------| 

e|--------------------------------------------------------------------| 
B|--------------------------------------------------------------------| 
G|-9-9-9-9---------7-7-7-7--------------------------------------------| 
D|-9-9-9-9-9-9-9-9-7-7-7-7-7-7-7-7------------------------------------| 
A|-7-7-7-7-9-9-9-9-5-5-5-5-7-7-7-7------------------------------------| 
E|---------7-7-7-7---------5-5-5-5------------------------------------| X2
Comments