Vandals - Oi To The World Chords & Tabs

 

Oi To The World Chords & Tabs

Vandals Chords & Tabs

Version: 1 Type: Bass Tab 0 ratings
1 star 2 stars 3 stars 4 stars 5 stars
comments

Oi To The World Bass Tab

Title:  Oi To The World
By: The Vandals
Tabbed By: Kurt Hicks everclear_bass@hotmail.com

Intro/Verse “Haji Was a Punk Like Any Other Boy...”
G:---------------------I--------------I
D:---------------------I--------------I
A:---------------------I-----------77-I
E:-0000-4444-5555-7777­I­44-55-00-----I
[ Tab from: http://www.guitartabs.cc/tabs/v/vandals/oi_to_the_world_btab.html ]
Prechorus
G:-------------------------------I
D:-------------------------------I
A:­77-5--4--4----------------77--I
E:---------7--7-­44-55-4­00------I

Chorus “If God Came Down on Christmas...”
G:--------------------------------------------------I
D:--------------------------------------------------I
A:-----------77-55--4--4-------------------------77-I
E:-5555-7777----------7--7--4444-5555-44-55-4-0-----I

Bridge
G:----------------------I
D:----------------------I   x 1 (Then do the Verse)
A:----------------------I
E:-0000000000000000-----I

Comments