Vandals - My Girlfriend's Dead Chords & Tabs

 

My Girlfriend's Dead Chords & Tabs

Vandals Chords & Tabs

Version: 1 Type: Tab 0 ratings
1 star 2 stars 3 stars 4 stars 5 stars
comments

My Girlfriend's Dead Tab

-------------------------------------------------------------------------------
			     My Girlfriends dead - Vandals
-------------------------------------------------------------------------------

Tabbed by:Gregor Fair
Email:gregorfair@hotmail.com

Tuning: standard 


e|---------------------------------------------------------------------------|
B|---------------------------------------------------------------------------|
G|---------------------------------------------------------------------------|
D|---3---3---3---3---3---3---3---3-------------------------------------------|
A|-1---1---1---1---1---1---1---1---------------------------------------------|
E|---------------------------------------------------------------------------|

   (Palm Muted) *= play 8 times  #= play 16 times
e|---------------------------------------------------------------------------|
B|---------------------------------------------------------------------------|
G|-3*----------7*--8*--10*---------------------------------------------------|
D|-3---3*--5*--5*--8---10--10#-----------------------------------------------|
A|-1---3---5---5---6---8---10------------------------------------------------|
E|-----1---3---------------8-------------------------------------------------|

   (palm muted) *= play 8 times  ()= not palm muted >>>>>>>>>>>=pick scrape
e|---------------------------------------------------------------------------|
B|---------------------------------------------------------------------------|
G|-10*--12*--10*--12*--10*--12*----------------------------------------------|
D|-10---12---10---12---10---12---(10)----------------------------------------|
A|-8----10---8----10---8----10---(10)----------------------------------------|
E|-------------------------------(8)--->>>>>>>>>>>>>>>>>>>-------------------|

 (some notes are palm muted and some are not) *= play 8 times #= play 16 times
e|---------------------------------------------------------------------------|
B|---------------------------------------------------------------------------|
G|---------------7*--8*--10*-------------------------------------------------|
D|-7-8*--3*--5*--7---8---10---8*---------------------------------------------|
A|-7-8---3---5---5---6---8----8----------------------------------------------|
E|-5-6---1---3----------------6----------------------------------------------|

e|---------------------------------------------------------------------------|
B|-4-4-3-3-1-1---------1-1-1-1--4-4-3-3-1-1---------1-1-1-1------------------|
G|-------------3-3-2-3----------------------3-3-2-3--------------------------|
D|---------------------------------------------------------------------------|
A|---------------------------------------------------------------------------|
E|---------------------------------------------------------------------------|

e|---------------------------------------------------------------------------|
B|-4-4-3-3-1-1---------1-1-1-1-----------------------------------------------|
G|-------------3-3-2-3----------3-3-2-2-0-0----------------------------------|
D|------------------------------------------3-3-1-1-0-0----------------------|
A|------------------------------------------------------3-3-1-1--------------|
E|---------------------------------------------------------------------------|

  (some notes are palm muted and some are not) *= play 8 times #= play 16 times
e|---------------------------------------------------------------------------|
B|---------------------------------------------------------------------------|
G|---------------7*--8*--10*-------------------------------------------------|
D|-7-8*--3*--5*--7---8---10---8*---------------------------------------------|
A|-7-8---3---5---5---6---8----8----------------------------------------------|
E|-5-6---1---3----------------6----------------------------------------------|

e|---------------------------------------------------------------------------|
B|-4-4-3-3-1-1---------1-1-1-1--4-4-3-3-1-1---------1-1-1-1------------------|
G|-------------3-3-2-3----------------------3-3-2-3--------------------------|
D|---------------------------------------------------------------------------|
A|---------------------------------------------------------------------------|
E|---------------------------------------------------------------------------|
[ Tab from: http://www.guitartabs.cc/tabs/v/vandals/my_girlfriends_dead_tab.html ]
e|---------------------------------------------------------------------------|
B|-4-4-3-3-1-1---------1-1-1-1-----------------------------------------------|
G|-------------3-3-2-3----------3-3-2-2-0-0----------------------------------|
D|------------------------------------------3-3-1-1-0-0----------------------|
A|------------------------------------------------------3-3-1-1--------------|
E|---------------------------------------------------------------------------|

   ()= staccato notes *= play 4 times  #= play 8 times %=play 16 times
e|---------------------------------------------------------------------------|
B|---------------------------------------------------------------------------|
G|-(7)*-------(7)*--------8#--10#-------(7)*------(7)*--------8#--10#--------|
D|-(7)---(7)*-(7)---(7)*--8---10---8%---(7)--(7)*-(7)--(7)*---8---10--8%-----|
A|-(5)---(7)--(5)---(7)---6---8----8----(5)--(7)--(5)--(7)----6---8---8------|
E|-------(5)--------(5)------------6---------(5)-------(5)------------6------|

e|---------------------------------------------------------------------------|
B|-4-4-3-3-1-1---------1-1-1-1--4-4-3-3-1-1---------1-1-1-1------------------|
G|-------------3-3-2-3----------------------3-3-2-3--------------------------|
D|---------------------------------------------------------------------------|
A|---------------------------------------------------------------------------|
E|---------------------------------------------------------------------------|

e|---------------------------------------------------------------------------|
B|-4-4-3-3-1-1---------1-1-1-1-----------------------------------------------|
G|-------------3-3-2-3----------3-3-2-2-0-0----------------------------------|
D|------------------------------------------3-3-1-1-0-0----------------------|
A|------------------------------------------------------3-3-1-1--------------|
E|---------------------------------------------------------------------------|

    first 16 notes palm muted second 16 not palm muted
e|---------------------------------------------------------------------------|
B|---------------------------------------------------------------------------|
G|---------------------------------------------------------------------------|
D|---3---3---3---3---3---3---3---3---3---3---3---3---3---3---3---3-----------|
A|-1---1---1---1---1---1---1---1---1---1---1---1---1---1---1---1-------------|
E|---------------------------------------------------------------------------|

e|---------------------------------------------------------------------------|
B|---------------------------------------------------------------------------|
G|---------------7*--8*--10*-------------------------------------------------|
D|-7-8*--3*--5*--7---8---10---8*---------------------------------------------|
A|-7-8---3---5---5---6---8----8----------------------------------------------|
E|-5-6---1---3----------------6----------------------------------------------|

e|---------------------------------------------------------------------------|
B|-4-4-3-3-1-1---------1-1-1-1--4-4-3-3-1-1---------1-1-1-1------------------|
G|-------------3-3-2-3----------------------3-3-2-3--------------------------|
D|---------------------------------------------------------------------------|
A|---------------------------------------------------------------------------|
E|---------------------------------------------------------------------------|

e|---------------------------------------------------------------------------|
B|-4-4-3-3-1-1---------1-1-1-1-----------------------------------------------|
G|-------------3-3-2-3----------3-3-2-2-0-0----------------------------------|
D|------------------------------------------3-3-1-1-0-0----------------------|
A|------------------------------------------------------3-3-1-1--------------|
E|---------------------------------------------------------------------------|

e|---------------------------------------------------------------------------|
B|-4-4-3-3-1-1---------1-1-1-1--4-4-3-3-1-1---------1-1-1-1------------------|
G|-------------3-3-2-3----------------------3-3-2-3--------------------------|
D|---------------------------------------------------------------------------|
A|---------------------------------------------------------------------------|
E|---------------------------------------------------------------------------|

             v = vibrato
e|---------------------------------------------------------------------------|
B|-4-4-3-3-1-1---------1-----------------------------------------------------|
G|-------------3-3-2-3---3-2-3v----------------------------------------------|
D|---------------------------------------------------------------------------|
A|---------------------------------------------------------------------------|
E|---------------------------------------------------------------------------|
Comments