Vandals - Mohawk Town Chords & Tabs

 

Mohawk Town Chords & Tabs

Vandals Chords & Tabs

Version: 1 Type: Bass Tab 0 ratings
1 star 2 stars 3 stars 4 stars 5 stars
comments

Mohawk Town Bass Tab

Mohawk Town
by the Vandals

The intro note is a low E

Verse:

D ---------------------------6h777--
A ----------------------------------
E --5---0---5---0---5---0---5-------


Chorus:

Play this at a "galloping" pace, like buh-buh, buh-buh.

[ Tab from: http://www.guitartabs.cc/tabs/v/vandals/mohawk_town_btab.html ]
D -------------------------------532----------------------------------
A --33333333555555553333333355555---333333335555555533333333----7532--
E ----------------------------------------------------------0---------


Bridge:


Make sure to palm mute all the low E's played here.


D ---------------------------6h777-- (repeat 4x)
A ----------------------------------
E --5---0---5---0---5---------------


Tabbed by Matt Hamann
E-mail me at matt1@jps.net or gartuck@hotmail.com
Homepage: http://www.jps.net/matt1/index.html
Comments