Vandals - Marry Me Chords & Tabs

 

Marry Me Chords & Tabs

Vandals Chords & Tabs

Version: 1 Type: Bass Tab 0 ratings
1 star 2 stars 3 stars 4 stars 5 stars
comments

Marry Me Bass Tab

--------------------------------------
MARRY ME / The Vandals
--------------------------------------

tabbed by Carlos Pino

INTRO:

G--------------------------------------------------------------------------|

D|----------------------------------------------------------------------------|
A|-5-5-X------- -5-5-X--------------------------------------------|

E|---------5-5-X----------5-5-X-7-7-7-7-----0------------------------------|

VERSE:

G|---------------------------------------------------------------------------------|

D|-----------------------------------------------------------------------------------

A|-2----------------------------------------------------4-------------------------------------
E|----0-0-0-0-4-4-4-4-5-5-5-5-2-2-0-0-----------0-0-0---4-4-4-4-5-5-5-5-|
[ Tab from: http://www.guitartabs.cc/tabs/v/vandals/marry_me_btab.html ]
G|--------------------------------------------------------------------|
D|-------------------------------------------------------------------------
A|--------------------------------------------------------------------|
E|-2-2-2-2-4-4-4-4-0-0-0-0-5-5-5-4-2-2-0-X-0--------------------------|

CHORUS:

G|-------------------------------------------------------------------------------|

D|----------------------------------------------------------------------------------|

A|----------7-7-7-7----------7-7-7-7---------------------------------------------|
E|-7-7-7-X----------7-7-7-------------5-5-5-5-5-5-5-7-7-7-7-7-7------|
repeat

BRIDGES

G|--------------------------------------------------------------------------------

D|---------------------------------------------------------------------------------

A|---------------------------------------------------------------------------------|
E|-4-4-4-4-4-4-4-5-5-5-5-5-5-5-7-0-0-0--------------------------------|

G|----------------------------------------------------------
D|-Sometimes before the verse starts -------|
A|------------------------------------------------------------|
E|-0-5-5-7--------------------------------------------------|

guitar solo




Comments