Vandals - Let The Bad Times Roll Chords & Tabs

 

Let The Bad Times Roll Chords & Tabs

Vandals Chords & Tabs

Version: 2 Type: Bass Tab 0 ratings
1 star 2 stars 3 stars 4 stars 5 stars
comments

Let The Bad Times Roll Bass Tab

Titre : Let the bad times roll
Band : The Vandals

#1

|--------------------------------------------|
|--------------------------------------------|
|--------------------------------------------|
|--7>-5-5---7>-5---7>-5-5---0>-2>------------|

#2
[ Tab from: http://www.guitartabs.cc/tabs/v/vandals/let_the_bad_times_roll_btab_ver_2.html ]
|-----------------------------------------------------------------------|
|-----------------------------------------------------------------------|
|------------------------------------------------------7-7-6-5-5--------|
|-7-7-5-7-7-5-7-7-5-7-7-3>-0>-5>-7-7-5-7-7-5-7-7-5-7-7-----------2>-----|

#3

|-------------------------------------------|
|-------------------------------------------|
|-------7>-5-4-5----------------------------|
|---5>-----------5>-3>-5>-------------------|



Comments