Van Morrison - Dancing In The Moonlight Chords & Tabs

 

Dancing In The Moonlight Chords & Tabs

Van Morrison Chords & Tabs

Version: 1 Type: Tab 0 ratings
1 star 2 stars 3 stars 4 stars 5 stars
comments

Dancing In The Moonlight Tab

   
Here it is


F = x81010108
Bb = 688766
Eb = x68886
Eb/D = 58886
Cm = x35543
Db= x46664
Gm = 355333

Intro: F   Bb  Eb   Eb/D  Cm   F   Bb   Db  Gm


verse
              F               Bb          Eb  Eb/D             Cm
we get it almost every night, when that moon gets a big and bright its a

   F                   Bb         Eb       Eb/D   Cm
 supernatural delight, everbodys dancin in the moonlight


Verse and chorus have the same chord progressions

1.
[ Tab from: http://www.guitartabs.cc/tabs/v/van_morrison/dancing_in_the_moonlight_tab.html ]
e-11-----------------------------------------------------------|
b----------------------------------11~--11--/13----------------|
g--10br-10-10-8-10/12~-10-10p8-/12~---12-----------------------|
d--------------------------------------------------------------|
a--------------------------------------------------------------|
E--------------------------------------------------------------|

2.

e--b11-11-8-------------b11-11-8-------------------------------|
b--b11-11-8-9--8--8-9~--b11-11-8---11-11--11---11----8~/-------|
g-----------10-10-8-10~---------10b--hb10-bh10-hb10r-8~/-------|(X2)
d--------------------------------------------------------------|
a--------------------------------------------------------------|
E--------------------------------------------------------------|

Good song, enjoy the tab

Puerta De la Sol
Comments