Van Morrison - Brown Eyed Girl Chords & Tabs

 

Brown Eyed Girl Chords & Tabs

Van Morrison Chords & Tabs

Version: 7 Type: Tab 0 ratings
1 star 2 stars 3 stars 4 stars 5 stars
comments

Brown Eyed Girl Tab

e  -----------------0------------------------------|
B  ------0-----1-3-----3-1-----0-------------------|
G  -0-2----2-0-------------0-2----2-0-----0-2-0-2--|
D  -----------------------------------0 4----------|
A  ------------------------------------------------|
E  ------------------------------------------------|

e  ----------------------------|
B  ----------------------------|
G  -------------0-2-0-2--------|
D  -------0 4------------------|
A  ----------------------------|
E  ----------------------------|


and thats the intro...

luv ya
  Kels
[ Tab from: http://www.guitartabs.cc/tabs/v/van_morrison/brown_eyed_girl_tab_ver_7.html ]
Comments