Van Morrison - Bad Moon Rising Chords & Tabs

 

Bad Moon Rising Chords & Tabs

Van Morrison Chords & Tabs

Version: 1 Type: Bass Tab 0 ratings
1 star 2 stars 3 stars 4 stars 5 stars
comments

Bad Moon Rising Bass Tab

-------------------------------------------------------------------------------
			     Bad moon rising- van morrison
-------------------------------------------------------------------------------

Tabbed By : zook
e-mail: zakduarte@aol.com

Verses
[ Tab from: http://www.guitartabs.cc/tabs/v/van_morrison/bad_moon_rising_btab.html ]
G|------------------------------------------------------------------------|
D|------------------------------------------------------------------------|
A|------------5--5--3--3------------------------5--5--3--3----------------|
E|---3--3--3--------------3--3--3--3---3--3--3--------------3--3--3--3----|
chorus
G|--------------------------------------------------------------------------|
D|--------------------------------------------------------------------------|
A|--------------------------3--3--3--3-------------5--5--3--3---------------|
E|--3--3--3--3--3--3--3--3-------------3--3--3--3--------------3--3--3--3---|


thats basically it, just the blues scale, play that easy sequence
Comments