Van Morrison - Baby Please Dont Go Chords & Tabs

 

Van Morrison Chords & Tabs

Version: 1 Type: Tab 0 ratings
1 star 2 stars 3 stars 4 stars 5 stars
comments

Baby Please Dont Go Tab

Capo on 1st fret

()=Ghost Note
h=Hammer On
p=Pull Off
^^^=Vibrato
/=Slide Up
\=Slide Down
^=Bend
P.M.=Palm Mute 
T=Trill

Intro-

e|-------3p0-----0--  -----3p0--------|
b|-0-3p0-----3p0(0)-  -0-3-----3------|
G|------------------  -----------3^^^-|
D|------------------  ----------------|
A|------------------  ----------------|
E|------------------  ----------------|

e|-----3p0---0--------------------------------------|
b|-0-3-----3---3p0-----5----------------------------|
G|-----------------2/4---4\2-0---0-2p0--------------|
D|-----------------------------2-------2-2-2--------|
A|-------------------------------------------2------|
E|---------------------------------------------3^-0-|

Verse-

e|--------------| x5 |--------------------------------|
b|--------------|    |-2^-------------5---------------|
G|--------------|    |-2^---------2/4---4\2-0---------|
D|-----0--------|    |----2-2-2-2-------------2p0-2-2-|
A|-0h2----0-----|    |----2-2-2-2---------------------|
E|----------3^0-|    |--------------------------------|

Chorus-

e|--- ------|
b|(3)- -2/3-|
G|-1-- -3/4-|
D|-0-- -----|
A|-2-- -----|
E|-0-- -----|

Verse-

e|-------3-0--12\-0-| x2 |-------------------------|
b|------(3)0--12\-0-|    |-2^---------5------------|
G|------------------|    |-2^-----2/4--4\2-0-------|
D|------------------|    |----2-2------------2p0-2-|
A|------------------|    |----2-2------------------|
E|-12\-0------------|    |-------------------------|

Chorus-

e|---- -----|
b|(3)- -----|
G|-1-- -2/3-|
D|-0-- -3/4-|
A|-2-- -----|    
E|-0-- -----|    

Verse-

e|-------3-0--12\-0-| x2 |----------------------------------|
b|------(3)0--12\-0-|    |-2^---------------5---------------|
G|------------------|    |-2^-0-2p0-----2/4---4\2-0---------|
D|------------------|    |----0-2p0-2-2-------------2p0-2-2-|
A|------------------|    |----------2-2---------------------|
E|-12\-0------------|    |----------------------------------|

Chorus-

e|--- -----|
b|(3)- ----|
G|-1-- -/4-|
D|-0-- ----|
A|-2-- ----|
E|-0-- ----|

Verse-

e|-------3-0--12\-0-| x2
b|------(3)0--12\-0-|
G|------------------|
D|------------------|
A|------------------|
E|-12\-0------------|

interlude-

e|-0--0--0--0--  -----3p0----------|
b|(0}(0)(0)(0)-  -0-3-----3p0------|
G|-------------  -------------3^^^-|
D|-------------  ------------------|
A|-------------  ------------------|
E|-------------  ------------------|
[ Tab from: http://www.guitartabs.cc/tabs/v/van_morrison/baby_please_dont_go_tab.html ]
e|-------3p0---0----------------------------------------|
b|-0-3p0-----3---3p0-----5------------------------------|
G|-------------------2/4---4\2-0---0-2p0----------------|
D|-------------------------------2-------2-2-2p0--------|
A|-----------------------------------------------2------|
E|-------------------------------------------------3^-0-|

Bridge-

P.M.
e|-----------------------------|
b|-----------------------------|
G|-----------------------------|
D|---0-----------0-----------0-|
A|-0---0-------0---0-------0---|
E|-------3^-0--------3^-0------|

e|------------3---0---------------------------12\-12\--------|
b|--------0-3---3-------5---------------------12\-12\--3T4T5-|
G|-3^^^-------------2/4---4\2-0---0-2p0-2p0------------------|
D|------------------------------2-----------2----------------|
A|-----------------------------------------------------------|
E|-----------------------------------------------------------|

e|-----3p0---0------------------------------------12\-|
b|-0-3-----3---------5----------------------------12\-|
G|---------------2/4---4\2-0---0-2p0------------------|
D|---------------------------2-------2-2-2------------|
A|-----------------------------------------2----------|
E|-------------------------------------------3^-0-----|

Verse-

P.M.
e|------------| x3 |--------------| x5 |-----------------------------|
b|------------|    |--------------|    |-2^----------5---------------|
G|------------|    |--------------|    |-2^------2/4---4\2-0---------|
D|---0--------|    |-----0-0------|    |----2^-2-------------2p0-2-2-|
A|-0---0------|    |-0h2---0------|    |-------2-------------------2-|
E|-------3^-0-|    |---------3^-0-|    |-----------------------------|

Chorus-

e|----  -----|
b|(3)-  -2/3-|
G|-1--  -3/4-|
D|-0--  -----|
A|-2--  -----|
E|-0--  -----|

Verse-

e|-------3-0--12\-0-| x2 |----------------------------------|
b|------(3)0--12\-0-|    |-2^---------------5---------------|
G|------------------|    |-2^-0-2p0-----2/4---4\2-0---------|
D|------------------|    |----0-2p0-2-2-------------2p0-2-2-|
A|------------------|    |----------2-2---------------------|
E|-12\-0------------|    |----------------------------------|

Chorus-

e|---- -----|
b|(3)- -2/3-|
G|-1-- -----|
D|-0-- -----|
A|-2-- -----|
E|-0-- -----|

Verse-

e|-------3-0--12\-0-| x2
b|------(3)0--12\-0-|
G|------------------|
D|------------------|
A|------------------|
E|-12\-0------------|

end-

e|-0--0--0--0--  -----3p0----------|
b|(0}(0)(0)(0)-  -0-3-----3p0------|
G|-------------  -------------3^^^-|
D|-------------  ------------------|
A|-------------  ------------------|
E|-------------  ------------------|
E|-------------  ------------------|

e|-----3p0---0----------------------------------------|
b|-0-3-----3---3p0-----5------------------------------|
G|-----------------2/4---4\2-0---0-2p0----------------|
D|-----------------------------2-------2-2-2p0--------|
A|---------------------------------------------2------|
E|-----------------------------------------------3^-0-|

Comments