Van Halen - You Really Got Me Chords & Tabs

 

You Really Got Me Chords & Tabs

Van Halen Chords & Tabs

Version: 6 Type: Tab 0 ratings
1 star 2 stars 3 stars 4 stars 5 stars
comments

You Really Got Me Tab

 INTO
[ Tab from: http://www.guitartabs.cc/tabs/v/van_halen/you_really_got_me_tab_ver_6.html ]
  Girl.............you really got me now-you got me...
E|----------------------------|--------------------------------|
B|-----------------------2---3|-2------------------------2---3-|
G|-2-----------------2--------|-----2---0---2--------2---------|
D|----------------------------|--------------------------------|
A|----------------------------|--------------------------------|
E|----------------------------|--------------------------------|

    So I dont know what im doin'
E|---0------------------------------|----------------------|
B|-------3---2--------2-------------|----------------------|
G|---------------2---------2---0---2|(2)-------------------|
D|----------------------------------|----------------------|
A|----------------------------------|----------------------|
E|----------------------------------|----------------------|

Ill do more of the song later
Comments