Van Halen - You Really Got Me Chords & Tabs

 

You Really Got Me Chords & Tabs

Van Halen Chords & Tabs

Version: 3 Type: Bass Tab 0 ratings
1 star 2 stars 3 stars 4 stars 5 stars
comments

You Really Got Me Bass Tab

'You Really Got Me'
As played by Van Halen

Intro
=-R-------------------------=
=-E-------------------------=
=-S-------------------------=
=-T-7/--4-4-2-4---2-4-4-2-4-=
                  \  x3   /
      let last 4 ring last time through

Verses
=-----------------------------------------= \
=---------------------------4-2---2-------=  \ x2
=-------------------------------4---4-2-2-=  /
=-4-4-2-4---2-4-4-2-4---2-4---------------= /
            \  x2   /
[ Tab from: http://www.guitartabs.cc/tabs/v/van_halen/you_really_got_me_btab_ver_3.html ]
=-------------------------------------------------=
=-------------------------------------------------=
=-----------------------6-6-4-6/---4-6-6-4-6---4~-=
=-6-6-4-6---4-6-6-4-6-----------------------------=
            \  x3   /              \  x5   /

Solo
=---------------------------------------------= \
=----------------------------4-2---2----------=  \ x3
=--------------------------------4---4-2-2----=  /
=-4-4-2-4---2-4-4-2-4---2-4----------------4/-= /
            \  x2   /        last time only^

End
=-----------------------------------------------------------=
=-----------------------------------------------------------=
=-----------------------6-6-4-6/---4-6-6-4-6---6-6-6-6---6/-=
=-6-6-4-6---4-6-6-4-6---------------------------------------=
            \  x3   /              \  x5   /
Comments