Van Halen - Van Halen 3 Chords & Tabs

 

Van Halen 3 Chords & Tabs

Van Halen Chords & Tabs

Version: 1 Type: Tab 0 ratings
1 star 2 stars 3 stars 4 stars 5 stars
comments

Van Halen 3 Tab

   
Band- Van Halen
Album- Van Halen 3

1.NEWORLD

E|-2-3p2---0------2-3p2p-0------2-3p2---0----2-3p2--3-2h3p2p0-----|----|
B|-3---------3----3------3-3----3---------3--3------1---------1---|----|
G|-2-----------0--2------0---0--2------------2------0-----------0-|-2--|
D|-0--------------0------2------0------------0--------------------|----|
A|-------2---------------3------------2---------------------------|-0--|
D|----------------------------------------------------------------|----|

E|-------0---------3---2------0-2--p-----p-----------------------------|
B|-----2----2------2---3----3-----3-0----p----------------------0------|
G|---2--------4----0---2--2-------0---0---0-0-----------------0---0-0--|
D|-2------------5--2---0----------0-----0-----0-0-0-0-------0----------|
A|--------------------------------------------------------2------------|
D|----------------------------------------------------3/0--------------|

E|----------------2-----0-2--5-3h5p3-----------------------------------|
B|-2--------2-3h5-3---2------3----------------------0--------------0---|
G|-2------2-------2-3--------0---------------------------------------1-|
D|-2--0h2---------0----------0--------------0h2h3h4---4p2p0----0-2-----|
A|-0---------------------------------------------------------2---------|
D|-----------------------------------------------------------0---------|

E|---------------------2----2-3h5-7------7-9-10-10--------------3-2h3p2-|
B|---2h5--------2-3h5--3--3-------8----8-8-8--8-10-10-----------3-------|
G|---2--------2--------2----------7--7---7-7--7--7----7---------2-------|
D|-0-2----0h2----------0-------------------------0----------------------|
A|---0------------------------------------------------------------------|
D|----------------------------------------------------------------------|

E|----0-------------|
B|-3-----0----------|
G|---------2---2----|
D|-----------2----0-|
A|-------------0----|
D|------------------|

e-----------------------------------------------------------------------|
B-----------------------------------------------------------------------|
G----------------------------{12}------------------{12}-----------------|
D-------{12}------------{7}--------{12}---------------------------------|
A-{12}--------{7}------------------------{7}------------------{7}--{7}--|
D------------------{4}------------------------{4}--------{4}------------|

e-----------------{12}-------------------------------{12}--------------|
B----------------------{7}---------------{7}-----{7}-------------------|
G------------------------------------{5}-----{5}----------{7}-----{12}-|
D-----{7}-----{5}---------------------------------------------{7}------|
A-{7}-----{4}-------------------{5}------------------------------------|
D---------------------------{4}----------------------------------------|

e---------------------------------|
B---------------------------------|
G---------------------------------|
D---------{12}-----------{7}-{5}--|
A-----{5}------{7}---{7}----------|
D-{4}-----------------------------|

E|-------0------0--------0----------0--------------|
B|-3-3-----3------3--------3----------3------------|
G|-2---2------------2--------0----------0------0---|
D|-0-----------------------------------------0---0-|
A|------------4--------2----------0----------------|
D|----------------------------------------3--------|

E-------------------3-----2-||-----------------------|
B---3------3-3-2--3---3---3-||-----------------------|
G-0---0----0------3-----3-2-||-----------------------|
D-------0--0--------------0-||-------------------{5}-|
A---------------------------||-------------------{5}-|
D----------3----------------||--/4-3--/6-5--3-0--{5}-| repeat 2x

E-------------------------------------------------------------------{12}-----|
B--------------------------3-3--3-3--2-2----3-2tr3---3-----------------------|
G--------------------------2-2--2-3--2-2--2----------2-----------{5}----{5}--|
D----------------------------------------------------0--------{5}------------|
A--33--44--55--66--77--99----------------------------------{5}---------------|
D--33--44--55--66--77--99--------------------------------{4)-----------------|

2.WITHOUT YOU

Intro (with drums)
|-------------------------------------|
|-------------------------------------|
|-------------------------------------|
|-------------------------------------|
|-------------------------------------|
|----------3-3----------3-3-----------|
 <--------palm-mute-------------------|

Verse
|-------------------------------------|
|------3--------3--------3------------|
|------2-2------2--------2-2----------|
|------0-2-XXXX-0-2-XXXX-0-2----------|
|-0-XX---0-XXXX---2-XXXX---0-0-0------|
|-0-XX-----XXXX---0-XXXX--------3p1p0-|

Pre-chorus
|-----------------------|
|-----------------------|
|-222220XXXX-222220XXXXX
|-222220XXXX-222220XXXXX
|-----------------------|
|-----------------------|

|-------------------------|
|-------------------------|
|-222220XXXX-222220X------|
|-222220XXXX-222220X------|
|-------------------3-4b5-|
|-------------------------|

|-----------------------|
|-----------------------|
|-222220XXXX-222220\\\\\
|-222220XXXX-222220\\\\\ <----|pick scrape
|-----------------------------|
|-----------------------------|

|--------------------------|
|--------------------------|
|--------------------------|
|--------------------------|
|-------------222333444555-|
|-222333444555-------------|

Chorus
|------------3--------------------------------|
|-3----------3----------3---------------------|
|-2----------0----------2----------2----------|
|-0---------------------0----------2----------|
|----------------------------------0----------|
|---------------------------------------------|

3.ONE I WANT

INTRO/VERSE FIGURE: (played with slight palm muting)

(Doublestop first fret on the E&B strings)

|-1-----3-----3-----3-|----3-3p1-1-1-|
|-3-----3-----3-----1-|----1-1-1-1-1-|
|-2-2-2-2-2-2-0-0-0-0-|0-0-0-0-0-0-0-|
|---------------------|--------------|
|---------------------|--------------|
|---------------------|--------------|

|-1-----3-----3-----3-|----1-1---1-------|
|-3-----3-----3-----1-|----1-1-3-1-3-3~~-|
|-2-2-2-2-2-2-0-0-0-0-|0-0-----0---0-0~~-|
|---------------------|------------------|
|---------------------|------------------|
|---------------------|------------------|

|-1-----3-----3-----3-|----3-3p1-1-1-|
|-3-----3-----3-----1-|----1-1-1-1-1-|
|-2-2-2-2-2-2-0-0-0-0-|0-0-0-0-0-0-0-|
|---------------------|--------------|
|---------------------|--------------|
|---------------------|--------------|

|-1-----3-----3-3-|-----------------1-|
|-3-----3-----3-3-|-----------------3-|
|-2-2-2-2-2-2-0-0-|---2-----2-------2-|
|-----------------|-2---2-1---1-----0-|
|-----------------|-------------3p0---|
|-----------------|-------------------|

This repeats over the verse, until the little measure before the guitar
solo interlude

|-1-----3-----3-3-|-/5-5-/8-8-|
|-3-----3-----3-3-|-/5-5-/8-8-|
|-2-2-2-2-2-2-0-0-|-----------|
|-----------------|-----------|
|-----------------|-----------|
|-----------------|-----------|

Solo Chords: Am Em F G / Am Em Em

|-12-15p12------------------------------------------|
|----------13---------------------------------------|
|-------------12----/14-/14--12-----14-14-12h14p12--|
|----------------14-------------14------------------|
|---------------------------------------------------|
|---------------------------------------------------|

|-------------------------------------20-19~~~~~~--|
|----------------------13h15h17-19/20--------------|
|-------------12h14h16-----------------------------|
|----12h14h16--------------------------------------|
|-//-----------------------------------------------|
|--------------------------------------------------|

And back into the verse.

Then the Pre-Chorus:

Basically just chords:

A5 Em F
Everyone's looking for something
A5 Em F G5
Wanting their piece of the pie
A5 Em F
Searching for their slice of heaven
Em G (E) A5
I gotta have mine, yeah mine....And you're the one I want

CHORUS:

|---------------|-----------------|---------------|----------------|
|---------------|-----------------|---------------|----------------|
|-7-7-7-------9-|-----------------|-7-7-7-------9-|----------------|
|-7-7-7-7-7p6-9-|---6-7-9-6-------|-7-7-7-7-7p6-9-|--------7\6\4\2-|
|-5-5-5-7-----7-|-----------7-5~~-|-5-5-5-7-----7-|--7/9\7---------|
|-------5-------|-0---------------|-------5-------|-0--------------|

|---------------|-----------------|-------------4-|
|---------------|-----------------|-------------5-|
|-7-7-7-------9-|-----------------|-7-7-7-------6-|
|-7-7-7-7-7p6-9-|---6-7-9-6-------|-7-7-7-7-7p6-6-|
|-5-5-5-7-----7-|-----------7-5~~-|-5-5-5-7-----4-|
|-------5-------|-0---------------|-------5-------|

----Let Ring-----------------------------------|
|-4-----4-------4-------------|----------------|
|-5-5-------5-----------------|-----------4----|
|-6---6---6---6---------------|-5-5-5-5-5-5----| Boogieman...
|-6----------------/4p2p0-----|-5-5-5-5-5-5----|
|-4-----------------------4---|-3-3-3-3-3-3----|
|---------------------------3-|----------------|
And back into the verse, again.

Goes into Pre-Chorus and the Chorus again with variations, until the end of
the chorus, and instead of just going C#m, C. It follows the next chord
progression into the breakdown:

C#m / / / / C / / / / Em / / / / G / / / / Asus2 / / / /

There are a few rhythm fills in there, that you can get just by picking
around on the chords.

(Ends with a trill on the D string, 4th to 7th frets)

Now comes the breakdown:

|-----------------|--------------|----------------|----5----5-5~~-|
|-----------------|--------------|----------------|----5----5-5~~-|
|-----------2-----|----4---2-2---|---------2------|----4----------|
|-------4-----4~~-|--4---4-4-4---|-----4-----4~~--|--4---4--------|
|-----4---4-----0h|2-------2-2---|---4---4------0h|2--------------|
|-0h2-------------|------------0h|-2--------------|---------------|

This repeats with slight variation, then the las measure before the guitar
solo comes in, play an E power chord in this form:

E-0
B-5
G-4
D-2
A-x
E-x

Then comes the solo, and you basically continue the same chords/pattern as
the above figure. When it kicks into an almost double time, just strum the
chords in rhythm with the drums.

Then right before you go back to the introduction lick, you play an
ascending chord figure, that goes

B5 C5 C#5

Then you're back to the opening part.

|----------------------------|
|----------------------------|
|---7---7----7---------------|
|---7---7----7---------------|
|-0-5-0-5-0-/5-4-2-0-2-4-0---|
|--------------------------0-|

Then you repeat the chorus, in a drum-fill ridden half time thing.

Then the chorus comes in normal.

The triplet part goes like this:

|------------------|
|------------------|
|------------------|
|------------------|
|--/11-9-7-5-4-2---|
|----------------0-|

Chorus continues to repeat with variations, until a new lead rhythm figure
can be heard. It repeats, and begins on the upbeat of 3 (hence the pickup
bar in the next figure.)

|--------|------------------------|
|--------|-----------------5-5-5--|
|--------|-----------------4-4-4--|
|------4-|-7---------------2-2-2--|
|--5-7---|-----4-7----------------|
|--------|---5-----5-7-0----------|
This repeats several times, until it is just pouning chords with no melody.

D5 A5 E5

And fills after each time this is played. The first fill goes something
like this:

|--------------------------|
|--T12-p-0-h-5-T12-p-0-h-5-|
|--------------------------|Repeats several times, rapidly.
|--------------------------|
|--------------------------|
|--------------------------|

Second fill:

|----------T12p0h7-|
|--T12p0h5---------|
|------------------|Repeated several times, rapidly.
|------------------|
|------------------|
|------------------|

Third fill

Hold this-| While tapping this with right index & middle
|---------|-------------------------------|
|---5-----|-9-(p5)-10-(p5)-11/14\12~~~\---|
|---------|-------------------------------|
|---5-----|-9-(p5)-10-(p5)-11/14\12~~~\---|
|---------|-------------------------------|
|---------|-------------------------------|

4th Fill

|--------------------|
|--------------------|
|--9\\\-----/9-/9-/9-|
|--------------------|
|--7\\\-----/7-/7-/7-|
|--------------------|
W/BAR**************|

Ends by playing 11 D5 powerchords.

4.FROM AFAR

Introduction: FADES IN

|-7-----8------7-----7-5-(7)(5)(7)-------|-7-----8-----10-----------------|
|---8-----8------8-----------------8--(8)|---8-----8------12-------10-----|
|-----9-----9------9-----------------9---|-----9-----9----------11-----<7>|
|----------------------------------------|-------------------12--------<7>|
|----------------------------------------|--------------------------------|
|0---------------------------------------|--------------------------------|

|---7-----8-------------0-|-7-----8---------3---------------------------------|
|-----8-----8\--------0-0-|---8-----8\------3---------------------------------|
|-------9-------------0-0-|-----9-----------0----<7>--------------------------|
|---------------------0-2-|-----------------0----<7>--------------------------|
|---------------0h2h3-2-2-|-------------0h2h3---------------------------------|
|-0-------------------3-0-|-------------------3-------------------------------|
Vol. Swell---------------------------------------------------------^^^^^^^^---|


VERSE:
|-00|0--7-8------------|-7-----8--------10-----------------|
|-00|0--8-8----------0-|---8-----8---------12---------3----|
|-00|0--9-9--------0-0-|-----9----------------------2-2----|
|-22|2-------------0-2-|-----------10/12----------2---0----|
|-22|2-------0h2-3-x-2-|------------------------0----------|
|-00|0-------------3-0-|-----------------------------------|


Repeats w/ slight variation.


Panned Delay Section:
|----------|----------|-----------------|---------|
|----------|----------|-----------------|---------|
|----------|-6-(6-6)--|-5-(5-5)-6-(6-6)-|-4-(4-4)-|
|-2-(2-2)--|-6-(6-6)--|-5-(5-5)-6-(6-6)-|-4-(4-4)-|
|-2-(2-2)--|-4-(4-4)--|-3-(3-3)-4-(4-4)-|-2-(2-2)-|
|-0-(0-0)--|----------|-----------------|---------|

|--7-8------------|
|--8-8----------3-|
|--9-9--------0-2-|
|-------------0-0-|
|-------0h2-3-x-0-|
|-------------3---|

REPEAT SECTION

CHORUS:
|--7-8--0----------|----|-0----------|------------|---------------|
|--8-8--0----------|----|-0----------|------------|-------7h8p7---|
|--9-9--0----------|-5--|-0----------|-5----------|-7---7-7-----7\|
|-------2--9-8-7-6-|-5--|-2--9-8-7-6-|-5--5-5-5-5/|-7-7---------7\|
|-------2--7-6-5-4-|-3--|-2--7-6-5-4-|-3--3-3-3-3/|-5-----------5\|
|-------0----------|----|-0----------|------------|---------------|

|-----------------|------------------|-----0--------|---------------|
|-----------------|------------------|----------0---|---------------|
|-5-5-5-5-5-5-5/7-|-7-7-7-7-7-7-7-7\-|--------------|-0-------------|
|-5-5-5-5-5-5-5/7-|-7-7-7-7-7-7-7-7\-|---5-----4----|-2-8/9-9-8-7-6-|
|-3-3-3-3-3-3-3/5-|-5-5-5-5-5-5-5-5\-|-3-----2------|-2-6/7-7-6-5-4-|
|-----------------|------------------|------------0-|-0-------------|

|--------------|---------------|---------|---------|
|-----5----4---|---------------|---------|---------|
|--------------|-0-------------|-5-(5-5)-|-4-(4-4)-|
|---5-----4----|-2-8/9-9-8-7-6-|-5-(5-5)-|-4-(4-4)-|
|-3-----2------|-2-6/7-7-6-5-4-|-3-(3-3)-|-2-(2-2)-|
|------------0-|-0-------------|---------|---------|


REPEATS VERSE & CHORUS

|-7-----8-----10----------<12>------------|
|---8-----8------12-----------------------|
|-----9-----9-------12------------------9-|
|----------------------12-----------7h9---|
|------------------------------7h10-------|
|-----------------------------------------|

Bridge:

C/G= C chord with A G bass note.
D/A= D chord with an A bass note.
C/G D/A * G D/A *
C/G D/A ** C5 B5

*=Play lick that led into this section (7-10, 7-9, 9)
**=Play similar lick, which is tabbed below:
|-------------|
|-------------|
|-------------|
|------7h9----|
|-7h10-----10-|
|-------------|

Solo Section
Chords:
Em A5
Em A5
Em A5
Em A5
B5 C5 C#5 C5
F#5 G5 G#5
A/A#/B5
C5 C/B/A/B B5

Lead in to chorus:
|------------------------|
|------------------------|
|------------------------|
|-16-16-15-14-13\9-8-7-6-|
|-14-14-13-12-11\7-6-5-4-|
|------------------------|

CHORUS REPEATS

"In my imagaiation repeats" 4x.

|---------|---------|
|---------|---------|
|-5-(5-5)-|-4-(4-4)-| Repeats 4x
|-5-(5-5)-|-4-(4-4)-|
|-3-(3-3)-|-2-(2-2)-|
|---------|---------|
Just to love you...

5.DIRTY WATER DOG

Don't Know

6.ONCE

TUNING: Drop C (CADGBE) Yes, you can play this entire song on a normal guitar, and not a 
string bass like
Eddie did. Just tune your low E string down to a C.


|-----------------|------------------------------------|-------------|
|-----------------|------------------------------------|-------------|
|-----------------|---------------------------9--------|-------------|
|-/7--9h10-9h10p7-|-9h10p9h10/12-10h12-9h10p9-9h10-7-7-|-9h10-9h10-7-|
|-----------------|------------------------------------|-------------|
|-----------------|------------------------------------|-------------|


|---------------------------------------------------|------------|
|-8-10-12-13-12-13-15-15-13-12-12/13-10-13-12/13-10-|------------|
|---------------------------------------------------|-----9------|
|-5--7--9-10--9-10-12-12-10--9--9/10--7-10--9/10--7-|-7h9---7-7--|
|---------------------------------------------------|-7----------|
|---------------------------------------------------|------------|
\____pick with fingers____________________________/

|------------------------------------|------------------------------------|
|------------------------------------|------------------------------------|
|------------------------------------|------------------------------------|
|-9h10-9h10-9-9h10-10/12-10-9-9h10p7-|-9h10/12\10p9-9-9----------9-9-9----|
|------------------------------------|------------------------------------|
|------------------------------------|------------------11-11-11-------11-|


|--------------------------------------------|-------------------------|
|-------13-13-13-13-13-13--------------------|-------------------------|
|-14~~~-------------------14p12h14-----------|---------5-7-7~~~-5h7~~~-|
|----------------------------------9-10-7-7\-|-----5-7-----------------|
|--------------------------------------------|-------------------------|
|--------------------------------------------|-0-0---------------------|


|-------------|----------------------------|-------------------|
|-------------|----------------------------|-------------------|
|-5-----------|----------------------------|-------------------|
|---7-5-------|----------------------------|-------------------|
|-------7-5\3-|-3-3-5-5^-5-3\--------------|-----0-3-5-5^-3h5^-|
|-------------|---------------0-0-2-2^-2-0-|-5-7---------------|


|------------------|-----------------------------|-------------------|
|----------------6-|-----------------------------|-------------------|
|-----------5-/7---|-----------------------------|-------------------|
|------5-/7--------|-3-3-3-5-5^-5-3--------------|-----0-3-5-5^-3h5^-|
|-3-/7-------------|-----------------------------|-1-3---------------|
|------------------|----------------5-5-7-7^-7-5-|-------------------|


|----------------8\-|------------------------------------|
|-----------6-/8----|-6-8-8^-8^-8^-8^-8-6----------------|
|------5-/7---------|---------------------7--------------|
|-3-/7--------------|-----------------------7-5----5-----|
|-------------------|---------------------------7^---5-5-|
|-------------------|------------------------------------|


|--------------|------------------------------|
|--------------|------------------------------|
|--------------|------------------10----------|
|--------------|---------------12----14-12----|
|-5--7--8--10\-|-/12-10-/15-12-------------12-|
|--------------|------------------------------|
\__trem pick__/


|----------------------------|
|----------------------------|
|---4-----4----/-/6----6-----|
|-----5-----5--/----7----7---|
|-5-----5-----5/------7----7-|
|----------------------------|


|-----------------------------------|--/20~~~~~--|
|--------7--7--7----------9--9--9---|------------|
|------7--7--7--7-------9--9--9--9--|------------|
|----7-----7--7--7----9-----9--9--9-|------------|
|-/5---------------/7---------------|------------|
|-----------------------------------|------------|

7.FIRE IN THE HOLE

Intro:
F#|------------------------------------------------------------------------|
C#|---------------------------------3----3-3-------------------------------|
 A|---------2----2-2----------------2----0-0---------------0~-0~-----------|
 E|---------2----2-2----------------0----0-0-----0-h-2-h-3~-----3-p-2-p-0~-|
 B|---------0----0-0---------0-h-3-----------------------------------------|
F#|--0-h-3-----------------------------------------------------------------|

F#|------------------------------------------------------------------------|
C#|----------------------------------5-----------------------------------x-|
 A|------------------2-----2-h-5-p-2---2-h-5-p-2--------------2----2-2---x-|
 E|------------------2----------------------------0v----------2----2-2---x-|
 B|--2b3r2-p-0-------0-------------------------------3--------0----0-0---x-|
F#|------------3-p-0-----------------------------------3-p-0---------------|

F#|------------------------------------------------------------------------|
C#|---------3----3-3---x-x-------------------------------------------------|
 A|---------2----0-0---x-x----------0~----------------------2--------------|
 E|---------0----0-0---x-x--0-h-2-3---3-p-2-p-0-------------2--------------|
 B|--0-h-3---------------------------------------2b3--------0--///////////-|
F#|---------------------------------------------------0-h-3----///////////-|

F#|--^-^-^-^-^-^-^-|
C#|--^-^-^-^-^-^-^-|
 A|----------------|
 E|----------------|
 B|----------------|
F#|----------------|


Verse:
     In a word to           the wisdom tooth     To tell, or not the
F#|------------------------------------------------------------------------|
C#|---------------------------------3----3-3-------------------------------|
 A|---------2----2-2----------------2----0-0---------------0~-0~-----------|
 E|---------2----2-2----------------0----0-0-----0-h-2-h-3~-----3-p-2-p-0~-|
 B|---------0----0-0---------0-h-3-----------------------------------------|
F#|--0-h-3-----------------------------------------------------------------|

     truth (yeah)                                     So open up
F#|------------------------7\6----5\4-------------------------------------|
C#|-----------------------------------5\4\3-(\2-1)----------------------x-|
 A|------------------2-----7\6----5\4------------------------2----2-2---x-|
 E|------------------2--/5------------5\4\3-(\2-1)-----------2----2-2---x-|
 B|--2b3r2-p-0-------0---------(3)---------------------------0----0-0---x-|
F#|------------3-p-0----------------------------------3-p-0---------------|
[ Tab from: http://www.guitartabs.cc/tabs/v/van_halen/van_halen_3_tab.html ]
     and say ahh-men        Rinse cup, and spit again
F#|----------------------------------------------------------------------|
C#|---------3----3-3---x-x-----------------------------------------------|
 A|---------2----0-0---x-x----------0~-----------------------------------|
 E|---------0----0-0---x-x--0-h-2-3---3-p-2-p-0--------------------------|
 B|--0-h-3---------------------------------------2b3r2-p-0-------0-------|
F#|--------------------------------------------------------3-p-0---3-p-0-|


Pre-Chorus:
   Forked tounge in double speak          Pretty soon you just might...
E|-x---------x-5-4-4-------------------------------------------------------|
B|-x-2---2---x-5-5-5-4-4---------------4---------2---4-4-------------------|
G|-x-2---2---x-4-4-4-4-4---------------4---------2---4-4-------------6-6-6-|
D|-x-2---2---x-------4-4---------------4---------2---4-4-4-4---6-6h8-8h9p8-|
A|-x-0---0---x---------------5p2-2-2p0h2---------0-0-2-2-4-4--/4-4-4-------|
E|-x---0---0-x-----------5p2-------------0h3p0h5---------2-2---------------|

   Inhale before you begin                Your iron lung's a bag of wind
E|-x-3-3-3--3-2-2--------------------------------------------|
B|-x-3-3-3--3-3-3--2--------------------2--------------2-5-4-|
G|-x-0-0-0--2-2-2--2------------2-------2--------------2-4-4-|
D|-x-0-0-0--0-0-0--2------------2-------2--------------2-4-4-|
A|-x-x-x-x---------0------3p0-0-0-----0-0--------------0-2-2-|
E|-x-3-3-3------------3p0---------3~~-----0h2p0h3p03~~-------|


Chorus:
   There's a fire in the hole          Fire in the hole
E|-x--------------------------------------------------------------------|
B|-x-3--5--3--5/8-/10------------------------8--------------------------|
G|-x-2--4--2--4/7-/9-------------------------7--------------------------|
D|-x-0--2--0--2/5-/7-------------------------5----9-77-55-44-22---------|
A|-------------------------------------3h5p3---3/-7\55-33-22-00---------|
E|--------------------3-6p5-3-5-3~~-5---------------------------0-3/5-0-|

   There's a fire in the hole     Fire
E|----------------------------------------------------------|
B|-3--5--3--8--10-----------------------8---5---------------|
G|-2--4--2--7--9------------------------7-----4-----/-------|
D|-0--2--0--5--7------------------------5-------2---/-------|
A|--------------------------------3h5p3-----------2-/-------|
E|-----------------3~~--6p5--3h5----------2-----------15\\\-|


Verse:
     Sweet 'n' sour,         filiblister         Faucet pouring,
F#|------------------------------------------------------------------------|
C#|---------------------------------3----3-3-------------------------------|
 A|---------2----2-2----------------2----0-0---------------0~-0~-----------|
 E|---------2----2-2----------------0----0-0-----0-h-2-h-3~-----3-p-2-p-0~-|
 B|---------0----0-0---------0-h-3-----------------------------------------|
F#|--0-h-3-----------------------------------------------------------------|

     fresh 'n' bitter                                  Come on smile and...
F#|------------------------------------------------------------------------|
C#|----------------------------------5-----------------------------------x-|
 A|------------------2-----2-h-5-p-2---2-h-5-p-2--------------2----2-2---x-|
 E|------------------2----------------------------0v----------2----2-2---x-|
 B|--2b3r2-p-0-------0-------------------------------3--------0----0-0---x-|
F#|------------3-p-0-----------------------------------3-p-0---------------|

     On a count of three    Ya got a mindful of decavities           Hey!
F#|----------------------------------------------------------------------|
C#|---------3----3-3---x-x-----------------------------------------------|
 A|---------2----0-0---x-x----------0~-----------------------------------|
 E|---------0----0-0---x-x--0-h-2-3---3-p-2-p-0--------------------------|
 B|--0-h-3---------------------------------------2b3r2-p-0-------0-------|
F#|--------------------------------------------------------3-p-0---3-p-0-|


Pre-Chorus:
   Chew your words, lest you choke        You better watch your mouth...
E|-x---------x-5-4-4-------------------------------------------------------|
B|-x-2---2---x-5-5-5-4-4---------------4---------2---4-4-------------------|
G|-x-2---2---x-4-4-4-4-4---------------4---------2---4-4-------------6-6-6-|
D|-x-2---2---x-------4-4---------------4---------2---4-4-4-4---6-6h8-8h9p8-|
A|-x-0---0---x---------------5p2-2-2p0h2---------0-0-2-2-4-4--/4-4-4-------|
E|-x---0---0-x-----------5p2-------------0h3p0h5---------2-2---------------|


   Tongue tied in a tangled web           Your bile inside better left...
E|-x-3-3-3--3-2-2--------------------------------------------|
B|-x-3-3-3--3-3-3--2--------------------2--------------2-5-4-|
G|-x-0-0-0--2-2-2--2------------2-------2--------------2-4-4-|
D|-x-0-0-0--0-0-0--2------------2-------2--------------2-4-4-|
A|-x-x-x-x---------0------3p0-0-0-----0-0--------------0-2-2-|
E|-x-3-3-3------------3p0---------3~~-----0h2p0h3p03~~-------|


Chorus:
   There's a fire in the hole          Fire in the hole
E|-x--------------------------------------------------------------------|
B|-x-3--5--3--5/8-/10------------------------8--------------------------|
G|-x-2--4--2--4/7-/9-------------------------7--------------------------|
D|-x-0--2--0--2/5-/7-------------------------5----9-77-55-44-22---------|
A|-------------------------------------3h5p3---3/-7\55-33-22-00---------|
E|--------------------3-6p5-3-5-3~~-5---------------------------0-3/5-0-|

   There's a fire in the hole     Fire
E|----------------------------------------------------------|
B|-3--5--3--8--10-----------------------8---5---------------|
G|-2--4--2--7--9------------------------7-----4-----/-------|
D|-0--2--0--5--7------------------------5-------2---/-------|
A|--------------------------------3h5p3-----------2-/-------|
E|-----------------3~~--6p5--3h5----------2-----------15\\\-|


Solo (Background guitar):
E|-----------3-3---------------------------------------|
B|-----------3-3----------------------2-2-3-3-2-2------|
G|-----------0-0----------------------2-2-2-2-2-2------|
D|-2-2-------0-0---------------2---2--2-2-2-2-2-2--2-2-| x2
A|-2-2-------x-x-----2p0-----0-2---2--0-0-0-0-0-0--2-2-|
E|-0-0-/-5p4p3-3-0h3-----3~~---0h3p0---------------0-0-|

Then it goes into just chords (when the drums start with the ride cymbal)
E5 G5 A5 (D5) E5 A5
E5 G5 A5

E|---------------------------|
B|---------------------------|
G|-4-5-4/7-5-4--5-4/7--9--9/-|
D|-4-5-4/7-5-4--5-4/7--9--9/-|
A|-2-3-2/5-3-2--3-2/5--7--7/-|
E|---------------------------|


Bridge:
F#|------------------------------------------------------------------------|
C#|---------------------------------3----3-3-------------------------------|
 A|---------2----2-2----------------2----0-0---------------0~-0~-----------|
 E|---------2----2-2----------------0----0-0-----0-h-2-h-3~-----3-p-2-p-0~-|
 B|---------0----0-0---------0-h-3-----------------------------------------|
F#|--0-h-3-----------------------------------------------------------------|

F#|------------------------------------------------------------------------|
C#|----------------------------------5-----------------------------------x-|
 A|------------------2-----2-h-5-p-2---2-h-5-p-2--------------2----2-2---x-|
 E|------------------2----------------------------0v----------2----2-2---x-|
 B|--2b3r2-p-0-------0-------------------------------3--------0----0-0---x-|
F#|------------3-p-0-----------------------------------3-p-0---------------|

F#|------------------------------------------------------------------------|
C#|---------3----3-3---x-x-------------------------------------------------|
 A|---------2----0-0---x-x----------0~----------------------2--------------|
 E|---------0----0-0---x-x--0-h-2-3---3-p-2-p-0-------------2--------------|
 B|--0-h-3---------------------------------------2b3--------0--///////////-|
F#|---------------------------------------------------0-h-3----///////////-|


Chorus:
   There's a fire in the hole          Fire in the hole
E|-x--------------------------------------------------------------------|
B|-x-3--5--3--5/8-/10------------------------8--------------------------|
G|-x-2--4--2--4/7-/9-------------------------7--------------------------|
D|-x-0--2--0--2/5-/7-------------------------5----9-77-55-44-22---------|
A|-------------------------------------3h5p3---3/-7\55-33-22-00---------|
E|--------------------3-6p5-3-5-3~~-5---------------------------0-3/5-0-|

   There's a fire in the hole     Fire
E|----------------------------------------------------------|
B|-3--5--3--8--10-----------------------8---5---------------|
G|-2--4--2--7--9------------------------7-----4-----/-------|
D|-0--2--0--5--7------------------------5-------2---/-------|
A|--------------------------------3h5p3-----------2-/-------|
E|-----------------3~~--6p5--3h5----------2-----------15\\\-|

   There's a fire, fire, fire   A fire!
E|------------------------------------------|
B|-3--5--3--8--10-----------------------8---|
G|-2--4--2--7--9------------------------7---|
D|-0--2--0--5--7------------------------5---|
A|--------------------------------3h5p3-----|
E|-----------------3~~--6p5--3h5----------2-|


Outro:
 B|-----------3-3---------------------------------------|
F#|-----------3-3----------------------2-2-3-3-2-2------|
 D|-----------0-0----------------------2-2-2-2-2-2------|
 A|-2-2-------0-0---------------2---2--2-2-2-2-2-2--2-2-|
 E|-2-2-------x-x-----2p0-----0-2---2--0-0-0-0-0-0--2-2-|
 B|-0-0-/-5p4p3-3-0h3-----3~~---0h3p0---------------0-0-|

8.JOSEPHINA

|-7--8--7--2--3--2--5--6--5--0--1--3--2--7--8--7--2--3--2--5--6--5-----2--2--2--0--0--0--2-|
|-8--8--8--3--3--3--6--6--6--1--1--3--3--8--8--8--3--3--3--6--6--6--6--3--3--3--1--1--1--3-|
|-7--7--7--2--2--2--5--5--5--0--0--2--2--7--7--7--2--2--2--5--5--5--5--2--2--2--0--0--0--2-|
|------------------------------------------------------------------------------------------|
|------------------------------------------------------------------------------------------|
|------------------------------------------------------------------------------------------|


|-3--2--0-----------------------0-------9--10--9--10--12--11--10--12~-------------12~-10---|
|-3--3--1-------------------------0----------------------------------------11h13p11--------|
|-2--2--0---------------------------1------------------------------------------------------|
|--------2---------------------2-------2---------------------------------------------------|
|--------3--0h2h3-----------3--------------------------------------------------------------|
|------------------3--2--5\4---------------------------------------------------------------|

------------|
------------|
------------|
------------|
--------(7)-|
-------(7)--|

end of intro i'm not sure if this is 100% correct, but its close
|--------------(7)|-0------------------------------------------------------------------------|
|--------------(7)|-1-----------------0--1----1------------------------1--1----1--1----1--1--|
|----------(7)-(7)|-2----2---2--0--2------2--2----2-------2----2-----2----2--2----2--2----2--|
|-(7)---(7)----(7)|-2--2--2-------------------2--2---2---2---2---2---2--------2-------2------|
|----(7)-------(7)|--------------------------------------2-----------------------------------|
|--------------(7)|--------------------------------------------------------------------------|

------------|
----1-------|
---2--------|
------------|
------------|
------------|


|-------------------------------------|-0--------------------------------------------------|
|-1--1----1---1--------1------2-----|-1--------------0--1---1----------------1--1----1--1--|
|-2---2--2--2-2---------2---2---2p0|-2----2--2-0-2-----2--2---2-------2---2----2--2----2---|
|-2-----2------2-----------2---------|-2--2--2---------------2--2--2---2--2--2-------2-----|
|-----------------0h2h3--------------|---------------------------------2-------------------|
|-------------------------------------|----------------------------------------------------|

-----------|
-1---------|
2-2--------|
-----0-----|
-----------|
-----------|

to pre-chorus
|----------------|
|-------1-1-1----|
|-2-2--2-2-2-----|
|-0-0--2-2-2-----|
|----------------|
|----------------|

9.YEAR TO THE DAY

E ---5-7-8-8-----8-----7-----7-7h8p7-5--------------------------|
B -5-------------------------------------6-5p3------------------|
G ---------5---5---5---7---7---------5---------5~---------------|
D ---------7-7-------7-5-5-----------3-3------------------------|
A --------------------------------------------------------------|
E --------------------------------------------------------------|

E -----5-7-8-8---10---7-----7/10-8p7-5--------------------------|
B ----5----------------------------------6-5p3------------------|
G ---5-------5--------7---7----------5---------5----------------|
D --7--------7-7----5-5-5------------3-3------------------------|
A -7------------------------------------------------------------|
E --------------------------------------------------------------|
<-pm->

E ----5-11/12-17-11p10-8-8-8p5----------------------------------|
B ---5-----------6-----6-5-5---/--------------------------------|
G --5----8/-9-14------------------------------------------------|
D -7------------------------------------------------------------|
A --------------------------------------------------------------|
E --------------------------------------------------------------|
<-pm->

E --------------------------------------------------------------|
B --------------------------------------------------------------|
G -----------------------------5--------------------------------|
D ---------5h7p5----------------h7p5-x--------------------------|
A -4h5h6h7-------6p5-0-3/5h6h7---------6p5p0-3h5p3p0------------|
E --------------------------------------------------------------|

E -----------------------0----------------0---------------------|
B ---------------------3---3-------/-----0----0-----------------|
G ---------------------2-----2-----/----5---5-------------------|
D -0-------------------0-------0-------5--------5-7-------------|
A ---3/5p3p0-----------0----------------------------------------|
E -----------4p0-2h3p2-2---------1-/----------------------------|

E ---5-7-7h8-7---10---8p7-5-------------------------------------|
B -5--------------------------6-5p3-----------------------------|
G -----------7------------5---------5-4h5^(7)v(5)~--------------|
D -----------5-5----5-----3-3---------3-------------------------|
A --------------------------------------------------------------|
E --------------------------------------------------------------|

E -----0------------------------------0-------------------------|
B -------0---------0-----3-1tr3p0-----0-------------------------|
G ---------2---------0---0--------0---0-------------------------|
D ---2-----------2-----2-0----------0-2--/----------------------|
A -0---------2-3---------2------------2--/----------------------|
E -----------------------3------------0-------------------------|

E ---5-7-8-8-----8-----7-----7-7h8p7-5--------------------------|
B -5-------------------------------------6-5p3------------------|
G ---------5---5---5---7---7---------5---------5----------------|
D ---------7-7-------7-5-5-----------3-3------------------------|
A --------------------------------------------------------------|
E --------------------------------------------------------------|

E ----5-8-7h8p7-8---10---7-----7h8-7-5--------------------------|
B ---5--8--------------------------------6-5p3------------------|
G --5---7----------------7---7-------5---------5-4^(5)v(4)~-----|
D -7------------7-7----5-5-5---------3-3---------3--------------|
A --------------------------------------------------------------|
E --------------------------------------------------------------|
<-pm->

E -----0--------------------------------------------------------|
B -------0---------------0--------------------------------------|
G ---------2---0-------0---0-------0----------------------------|
D ---2-------2---2---4-------4---2---2--------------------------|
A -0---------3-----3-5---------5-3-----3------------------------|
E -----------3-------5-----------3-------3----------------------|

E ---0------------------------------0---------------------------|
B -----0-----------0---3-1tr3-0-----0---------------------------|
G -2-----2-------0---0-0--------0---0---------------------------|
D -2-----------2-------0----------0-2--/------------------------|
A -0-------2-3---------2------------2--/------------------------|
E ---------------------3------------0---------------------------|

E -----0-----------5-7-8-7---10---7h8-5-------------------------|
B ---0-----0-----5------------------------6-5p3-----------------|
G -------5---------------5----------------------5---------------|
D -5---------5-7---------5-5----5-----3-3-----------------------|
A --------------------------------------------------------------|
E --------------------------------------------------------------|

E ----5-8-7h8p7---8---10---7-----7h8-7-5------------------------|
B ---5--8-------8--------------------------6-5p3----------------|
G --5---7------------------7---7-------5---------5-4h5^(7)v(5)~-|
D -7--------------7-7----5-5-5---------3-3-------3--------------|
A --------------------------------------------------------------|
E --------------------------------------------------------------|
<-pm->

E -------0------------------------------------------------------|
B ---------1-------------------------0-0-0----------------------|
G -----2-----2---0-------0-------0---0-0-0----------------------|
D ---2---------2---2---4---4---2---2-2-2-2----------------------|
A -0-----------3-----3-5-----5-3-----3-3-3----------------------|
E -------------3-------5-------3-----3-3-3----------------------|

E ---0-------------------0---0-0-2-2------------------<12>------|
B -----0---------------------3-3-3-3------------------<12>------|
G -2-----------0-------2---2-2-2-2-2---------0------------------|
D -2---------2-------0---------------------3-----0tr2-----------|
A -0-----2-3-----------------------------3----------------------|
E ---------------3-2-----------------2-1-------0----------------|

E --------------------------------------------------------<12>--|
B --------------------------------------------------------<12>--|
G -----------------5-5-5-----------------------0----------------|
D -----3-------5/7-5-7-5h7p5/3---------------3-------0tr2-------|
A ---3---3/5-3-----------------5h7p5/3-----3--------------------|
E -1-----------------------------------3-1-------1-0------------|

E --------------------------------------------------------------|
B --------------------------------------------------------------|
G -------0--------------4^(5)v(4)~------------------------------|
D -----3--------------------------------------------------------|
A ---3----------------------------------------------------------|
E -1-------3/5-3------------------------------------------------|
(create harmonic 2 octaves above)

10.PRIMARY

-0-----0------0-----------------------|
-0-----0------0-----------------------|
-0-----0------0-------0-------0---0---|
-0-3-0-3-/5-3/5-------0-------0---0---|
-0-3-0-3-/5-3/5-------5\3-0-2/3-2/3---|
-0-3-0-3-/5-3/5-------5\3-0-2/3-3/2---|

-----------0---------------------------|
-----0---------0--------0-----0-0-0-0--|
-------0-------0--------0-----0-0-0-0--|
---------0---0-3/5------3/5\3-6-7-3-0--|
-0-3-----------3/5------3/5\3-6-7-3-0--|
---------------------------------------|

-12-12-12--7--5--4--|
-12-12-12--7--5--4--|
-12-12-12--7--5--4--|
-12-12-12--7--5--4--|
-12-12-12--7--5--4--|
-12-12-12--7--5--4--|

(harmonics)

11.BALLOT OR THE BULLET

-----------5------------------------------5-------|
-0-3-0-3/5---3-5---3-0-3--------0-3-0-3/5---3-5\0-|
-------------------------5-0----------------------|
--------------------------------------------------|
--------------------------------------------------|
--------------------------------------------------|

-0---0----------------5-----------------|
-0---0------0-3-0-3/5---3-5---3-0-3-----|
-0---0------------------------------5-0-|
-3-0-3/5--------------------------------|
-3-0-3/5--------------------------------|
----------------------------------------|

-----------5----0---0-|
-0-3-0-3/5--3-5-0---0-|
----------------0---0-|
----------------5\4\3-|
----------------5\4\3-|
----------------------|

-----------5------------------------------------|
-0-3-0-3/5---3-5-3-0-3--------------------------|
-----------------------3-0-0-3---------0-0----0-|
-------------------------------3/5-----3-5--4-3-|
---------------------------------------3-5--4-3-|
-----------------------------------3\0-3-5--4-3-|

------x-------------------------------|
------x-------------------------------|
-8--7-x-8-7-10\8-8-7\---5-3-6\5-3-----|
-8--7-x-8-7-10\8-8-7\---5-3-6\5-3-----|
-8--7-x-8-7-10\8-8-7\---5-3-6\5-3-----|
------x-------------------------------|

------x-------------------------------|
------x-------------------------------|
-8--7-x-8-7-10\8-8-7\---3-5-3-6\5\3---|
-8--7-x-8-7-10\8-8-7\---3-5-3-6\5\3---|
-8--7-x-8-7-10\8-8-7\---3-5-3-6\5\3---|
------x-------------------------------|


---xx----x--------------xx---------------|
---xx----x--------------xx---------------|
-0-xx--3-x-5-3-6\5-3--3-xx---------------|
-0-xx--3-x-5-3-6\5-3--3-xx---------------|
-0-xx--3-x-5-3-6\5-3--3-xx-3\0--3/5\3\0\-|(down w/ whammy)
-0-xx----x------------0-xx---------------|

---xx----x--------------------------|
---xx----x--------------------------|
-0-xx--3-x-5-3-6\5-3--3--0-0-0-0----|
-0-xx--3-x-5-3-6\5-3--3--0-3\0-3/5--|
-0-xx--3-x-5-3-6\5-3--3--0-3\0-3/5--|
-0-xx----x------------0--0-3\0-3/5--|

------------------|
------------------|
-3-55-3530--4(h)--|
----------30------|
------------------|
------------------|

12.HOW MANY SAY I

  C        G                Am            F
are you ever so silent, when she wanted to talk

    Fm                            G
or couldn't keep quiet, when she needed a hug

     C        Am             Em
come on too strong, when a little's too much

     F         C         G
how many, how many, say I

    C          G        Am            F
go on and say yes, and really mean no

         Fm                        G
would you rather guess, when you just don't know

        C       Am                      Fm
and then say I love you, but aren't willing to show

     G          F         C
how many, how many, say I

     F          G         A
how many, how many, say I

     D       A       D         G
HOW MANY SAY I, HOW MANY SAY I

     D       Am      D         E
HOW MANY SAY I, HOW MANY SAY I

     C            G             Am           F
say live and let live, then so quick to judge

Fm                              G
slow to forgive, when you're holding a grudge

       C        Am             Fm
don't always believe, all you need is love

     G          F         C
how many, how many, say I

     F          G         C
how many, how many, say I

     F          G         A
how many, how many, say I

     D       A       D         G
HOW MANY SAY I, HOW MANY SAY I

     D       Am      D         E
HOW MANY SAY I, HOW MANY SAY I

     C       G       C         F
HOW MANY SAY I, HOW MANY SAY I

     C       Gm      C         D
HOW MANY SAY I, HOW MANY SAY I

        C         G              Am               F
did you ever look down when the homeless walked by

   Fm                               G
or changed the channel when saw a hungry child

      C               Am            Em
know something to be true, then deny it

     F          G         C
how many, how many, say I

     F          G         C
how many, how many, say I

     F          G         A
how many, how many, say I
Comments