Van Halen - Unchained Chords & Tabs

 

Unchained Chords & Tabs

Van Halen Chords & Tabs

Version: 9 Type: Tab 0 ratings
1 star 2 stars 3 stars 4 stars 5 stars
comments

Unchained Tab

   
Gtr I (Db Ab Db Gb Bb Eb) - 'Eddie Van Halen brown sound Rhythm'
Gtr II (Db Ab Db Gb Bb Eb) - 'Eddie Van Halen Lead & Fills'

Intro
  Q=136
 4/4
  Gtr I
  E   +E  E E E E E E E   +E  E E E E E E E   Q  E E E E E  E
|---|-------------------|-------------------|------------------|
|-7-|-(7)-8-----------3-|-(3)-4p3---5-6p5---|-7--8---------10--|
|-7-|-(7)-7-----------3-|-(3)-3-----5-------|-7--7---------10--|
|-7-|-(7)-7-----------3-|-(3)-3-----5-------|-7--7---------10--|
|-5-|-(5)-5-------------|-------------------|-5--5----------8--|
|---|-------0-0-0-0-0---|---------0-------0-|------0-0-0-0-----|


   +E   E  E  E  E  E E E   Q  E E E E E E   +E  E E E E E E E
|-------------------------|----------------|-------------------|
|-(10)-11-10----10--8-----|-7--8---------3-|-(3)-4p3---5-6p5---|
|-(10)-10-10----10--9-----|-7--7---------3-|-(3)-3-----5-5-----|
|-(10)-------10----10-----|-7--7---------3-|-(3)-3-----5-5-----|
|--(8)--------------------|-5--5-----------|-------------------|
|---------------------0-0-|------0-0-0-0---|---------0-------0-|


  Q  E E E E E  E    +E   E  E  E  E  E E E   +E  E E E E E E E
|-----------------|-------------------------|-------------------|
|-7--8---------10-|-(10)-11-10----10--8---7-|-(7)-8-----------3-|
|-7--7---------10-|-(10)----10----10--9---7-|-(7)-7-----------3-|
|-7--7---------10-|-(10)-------10----10---7-|-(7)-7-----------3-|
|-5--5----------8-|--(8)------------------5-|-(5)-5-------------|
|------0-0-0-0----|-------------------------|-------0-0-0-0-0---|


  +E  E E E E E E E   Q  E E E E E  E    +E   E  E  E  E  E E E
|-------------------|-----------------|-------------------------|
|-(3)-4p3---5-6p5---|-7--8---------10-|-(10)-11-10----10--8---7-|
|-(3)-3-----5-------|-7--7---------10-|-(10)----10----10--9---7-|
|-(3)-------5-------|-7--7---------10-|-(10)-------10-10-10---7-|
|---------0---------|-5--5----------8-|--(8)------------------5-|
|-----------------0-|------0-0-0-0----|---------------------0---|


  +E  E E E E E E E   +E  E E E E E E E   Q  E E E E E  E
|-------------------|-------------------|-----------------|
|-(7)-8-----------3-|-(3)-4p3---5-6p5---|-7--8---------10-|
|-(7)-7-----------3-|-(3)-------5-------|-7--7---------10-|
|-(7)-7-----------3-|-(3)-------5-------|-7--7---------10-|
|-(5)-5-------------|-------------------|-5--5----------8-|
|-------0-0-0-0-0---|---------0-------0-|------0-0-0-0----|


                             Verse 1 & 2
                        ~~~~~~~~~~   PM    PM|  ~~~~~~~~            PM|
   +E   E  E  E  E  E E E     +Q   E E  E  E E  E   +E  E E S S E E E E
|-------------------------||----------------------|---------------------|
|-(10)-11-10----10--8-----||o---------------------|---------------------|
|-(10)-10-10----10--9-----||----------------------|-------3-----5-------|
|-(10)-------10----10-----||----------------------|-----3---------5-----|
|--(8)------------------3-||o-(3)--5---[3]-----/5-|-(5)-----5s7---------|
|-------------------------||---------0-----0-0----|-----------------0-0-|


   ~~~           PM|                       ~~~~~~~~       PM|
   Q   E E E     E E E    E  E  E  E E E E E   +Q   E E E E E  E
|----------------------|---------------------|-------------------|
|----------------------|----10-10----8-------|-------------------|
|----------------------|---------------9-----|-------------------|
|--------------------5s|=10-------10---------|-------------------|
|-[3]--5---3b3.5-------|-------------------3-|-(3)--5---3-----/5-|
|--------0-------0-0---|-----------------x---|--------0---0-0----|


                      ~~~~~~~~
  E E E S S E  E   E  E   +Q   E E E E E E    E  E  E  E E E  Q
|-----------------------|------------------|----------------------||
|-----------------------|------------------|----10-10----8--------||
|-----3-------[5]-[5]---|------------------|---------------9--9\--||
|---3-------5-----------|----------------5-|-10-------10-----10\--||
|-5-----5s7-----------3-|-(3)--5---3-------|----------------------||
|-----------------------|--------0---0-0---|----------------------||


 Pre-Chorus
  E  E   E  E  E   E  E E   E Q  E E E E E   E E  E   E  E E E E
|-------------------------|----------------|---------------------|
|-------------------------|----------------|---------------------|
|-7-----<7>-----------7s5s|=7----------7---|-7-----------7s5s7---|
|-5-<5>-<5>---<5>-<5>-5s3s|=5------x-x-5---|-5---<5>-<5>-5s3s5---|
|-----------5-------------|---5--3-x-x-----|---5---------------3-|
|-----------5-------------|---5--3-x-x-----|---5---------------3-|


  +E   E  E   E  E  E  E E    E   E  E E E Q  E
|--------------------------|--------------------|
|--------------------------|--------------------|
|----------------9-----9---|---------9s7s9------|
|--------<7>-<7>-7-<7>-7---|---------7s5s7------|
|-(3)-/7-----------------7-|-<7>-<7>-------7--5-|
|-(3)-/7-----------------7-|-<7>-<7>-------7--5-|


   E   E  E E E Q  E   E E E E E E E E
|--------------------|------------------||
|--------------------|---------------7--||
|---------9---9------|---------------7--||
|-----<7>-7---7------|---------------7--||
|-<7>-----------5--7-|---6---5---3---5--||
|---------------5--7-|---6---5---3------||


 Chorus
  +E  E E E E E E E   +E  E E E E E E E
|-------------------|-------------------|
|-(7)-8-----------3-|-(3)-4p3---5-6p5---|
|-(7)-7-----------3-|-(3)-3-----5-------|
|-(7)-7-----------3-|-(3)-------5-------|
|-(5)-5-------------|-------------------|
|-------0-0-0-0-0---|---------0-------0-|


  Q  E E E E E  E    +E   E  E  E  E  E E E
|-----------------|--------------------------|
|-7--8---------10-|-(10)-11-10----10--8------|
|-7--7---------10-|-(10)-10-10----10--9------|
|-7--7---------10-|-(10)-------10----10------|
|-5--5----------8-|--(8)---------------------|
|------0-0-0-0----|---------------------0-0--|


  Q  E E E E E E   +E  E E E E E E E
|----------------|-------------------|
|-7--8---------3-|-(3)-4p3---5-6p5---|
|-7--7---------3-|-(3)-------5-5-----|
|-7--7---------3-|-(3)-------5-5-----|
|-5--5-----------|-------------------|
|------0-0-0-0---|---------0-------0-|


                   1.
                                          ~
  Q  E E E E E  E    +E   E  E  E  E  E E E
|-----------------|---------------------------||
|-7--8---------10-|-(10)-11-10----10--8------o||
|-7--7---------10-|-(10)-10-10----10--9-------||
|-7--7---------10-|-(10)-------10-10-10-5-----||
|-5--5----------8-|--(8)------------------3--o||
|------0-0-0-0----|---------------------------||


                               Guitar Solo
  2.
  Gtr II
    H            Q    E   E      +Q.      E  Q.      E
|----------------------------||------------------------|
|----------------------------||------------------------|
|------------------------<5>-||-(<5>)-------<3>-----h3-|
|----------------------------||------------------------|
|----------------------------||------------------------|
|----------------------------||------------------------|
|
| Gtr I
|   E   E  E  E  E E  Q           E   E E E  E  E E  E
|----------------------------||------------------------|
|-(10)-11-10----10-8---------||------------------------|
|-(10)-10-10----10-9---------||------------------------|
|-(10)-------10------10\-----||---5---x-5----x--x-5----|
|--(8)-----------------------||------------------------|
|----------------------------||-----------5------------|


    T     T     T   T
  |----6----| |----6----|
  S S S S S S S S S S S S S    +S  +E  E  E
|---------------------------------------------|
|---8p3h6-8p3h6-8p6-8p6p3---------------------|
|-3-----------------------5b6==(6)r(5)-3-[5]--|
|---------------------------------------------|
|---------------------------------------------|
|---------------------------------------------|
|
|       ~
| E     Q           E     E         E  E  E
|---------------------------------------------|
|---------------------------------------------|
|---------------------------------------------|
|-5-----------------------x---------x--5------|
|---------------------------------------------|
|-------5-----------5-------------------------|


   |-----6------|    |-----6------|
   S  S S S  S  S E  S  S S S  S  S E  Q
|----------------------------------------------|
|-18p15-----18p15---18p15-----18p15---17pb18r==|
|----------------------------------------------|
|----------------------------------------------|
|----------------------------------------------|
|----------------------------------------------|
|
|                                            ~~~
|  E      E       E  E      E       E  E     E
|----------------------------------------------|
|----------------------------------------------|
|----------------------------------------------|
|--5--------------x--x------5-------x--5-------|
|----------------------------------------------|
|---------3----------------------------------3-|


   +Q         +E    E  E  E  S     +S   S  S
|--------------------------------------------|
|-(17)b19====(19)r-17-18-19-19b20r(20)p17----|
|-----------------------------------------19-|
|--------------------------------------------|
|--------------------------------------------|
|--------------------------------------------|
|
|~~~~~~~~~~
|  +E      E   E    E  E  E  E          E
|--------------------------------------------|
|--------------------------------------------|
|--------------------------------------------|
|-------------------x--7-----7---------------|
|--------------x-----------------------------|
|--(3)-----7----------------------------7----|


      ~~~
   S  E.    +E   E  E  E  E  S     +S
|---------------------17------------------|
|-17---------------------20-20b22r(20)b22r|
|----18----(18)s14s18---------------------|
|-----------------------------------------|
|-----------------------------------------|
|-----------------------------------------|
|
|                      ~~
|  E     E   E   E  E  Q     E
|-----------------------------------------|
|-----------------------------------------|
|-----------------------------------------|
|------------7p==5h=7---------------------|
|-----------------------------------------|
|--x-----x-------------7-----5------------|


                                              ~~~~~~~~~~~
   +S   +E.    +E   E  E  E  E  E    E  E  E  E      +H
|---------------------19-15-17-20-|-19-20-19-20b22==(22)--------||
|-(20)-(20)---(20)-17-------------|-----------------------------||
|---------------------------------|-----------------------------||
|---------------------------------|-----------------------------||
|---------------------------------|-----------------------------||
|---------------------------------|-----------------------------||
|
|                         ~~
|   E       E   E   E  E  Q     E    E  E  E  E       E  E E E




|---------------------------------|-----------------------------||
|---------------------------------|--------------------------7--||
|---------------------------------|--------------------------7--||
|---------------7------7----------|--------------------------7--||
|-------------------------------7-|-----6-----5----------3---5--||
|---x-------x-------------5-----7-|-----6-----5----------3------||


 Chorus
  Gtr I
  +E  E E E E E E E   +E  E E E E E E E
|-------------------|-------------------|
|-(7)-7-----------3-|-(3)-4p3---5-6p5---|
|-(7)-7-----------3-|-(3)-3-----5-------|
|-(7)-7-----------3-|-(3)-3-----5-------|
|-(5)-5-------------|-------------------|
|-------0-0-0-0-0---|---------0-------0-|


  Q  E E E E E  E    +E   E  E  E  E E E E
|-----------------|-------------------------|
|-7--8---------10-|-(10)-11-10----10-8------|
|-7--7---------10-|-(10)-10-10----10-9------|
|-7--7---------10-|-(10)-------10-----------|
|-5--5----------8-|--(8)--------------------|
|------0-0-0-0----|--------------------0-0--|


  Q  E E E E E E   +E  E E E E E E E
|----------------|-------------------|
|-7--8---------3-|-(3)-4p3---5-6p5---|
|-7--7---------3-|-(3)-3-----5-------|
|-7--7---------3-|-(3)-3-----5-------|
|-5--5-----------|-------------------|
|------0-0-0-0---|---------0-------0-|


  Q  E E E E E  E    +E   E  E  E  E E E E
|-----------------|-------------------------||
|-7--8---------10-|-(10)-11-10----10--------||
|-7--7---------10-|-(10)-10-10----10-9------||
|-7--7---------10-|-(10)-------10-10--------||
|-5--5----------8-|--(8)---------------0-0--||
|------0-0-0-0----|-------------------------||

[ Tab from: http://www.guitartabs.cc/tabs/v/van_halen/unchained_tab_ver_9.html ]
 Breakdown
  Gtr II
                 \1/         \1/ \1/ \1/ \1/   \1/
             |---3----|      |---3---|   |--3--|
   a  H     +Q   Q    Q      Q   Q   Q   Q   Q Q
|------------------------|---------------------------|
|------------------------|---------------------------|
|-12s14----(14)-14p==12s=|==10s==9s==7h==9p==7s5h====|
|------------------------|---------------------------|
|------------------------|---------------------------|
|------------------------|---------------------------|
|
|    Gtr I
|                            >
|     W                     +W
|------------------------|---------------------------|
|----14------------------|-(14)----------------------|
|----14------------------|-(14)----------------------|
|----14------------------|-(14)----------------------|
|-----0------------------|--(0)----------------------|
|------------------------|---------------------------|


   \1/  \1/  \1___/
   |----3----|
   Q    Q    Q   +E  E    Q       W                 W
|------------------------------|------------------|---------------|
|------------------------------|------------------|---------------|
|--7s===4p===2---(2)-----------|------------------|---------------|
|------------------------------|------------------|---------------|
|------------------------------|------------------|---------------|
|------------------------------|------------------|---------------|
|
|  |----3----|    |----3-----|    |-3--|            |-3-| |-3-|
|  q    q    q    q     q    q    q  q Q  Q  E E    q q q q q q
|------------------------------|------------------|---------------|
|------------------------------|------------------|---------------|
|-12---12---12---12----12---12-|-11-11---11-------|-0-0-0-0-0-0---|
|-12---12---12---12----12---12-|-12-12---12-------|-2-2-2-2-2-2---|
|------------------------------|---------------0--|---------------|
|------------------------------|------------------|---------------|


                             |---3----|
  W                    H     Q  a  q  q
|-------------------|----------14h15-14-|
|-------------------|-------------15----|
|-------------------|-------------------|
|-------------------|-------------------|
|-------------------|-------------------|
|-------------------|-------------------|
|
| E Q.   +E   E E E    W
|-------------------|-------------------|
|-------------------|-------------------|
|---2----(2)--------|-12----------------|
|---2----(2)--------|-14----------------|
|------------/4---0-|-(0)---------------|
|-------------------|-------------------|


   |--------3---------|
   q        q         q     q          Q
|-15-------14-------------------------------------|
|--------------------17---------------------------|
|--------------------------14---------------------|
|-------------------------------------------------|
|-------------------------------------------------|
|-------------------------------------------------|
|
|  S  S  S    S S  S     E  S  S S  S  S S  S  S
|-------------------------------------------------|
|----14p12--------12h===14-14p12---12h14---14p12--|
|----14p12--------12h===14-14p12---12h14---14p12--|
|-------------------------------------------------|
|-------------------------------------------------|
|-------------------------------------------------|


         ~~
   E  E  H        E  E    E  E       Q        E      Q      E
|-------17-------------|--------------------------------------|
|-17p15----------14s12-|-12s11--------------------------------|
|----------------------|--------------------------------------|
|----------------------|---------------------14s====16p====14s|
|----------------------|--------------------------------------|
|----------------------|--------------------------------------|
|
|                              T       T      T
|                         |-----3------|      |----3-----|
|  Q     E E E Q     E    Q    Q       Q      Q        q q
|----------------------|--------------------------------------|
|--------7---7p8-----7-|-------7(19)---7(19)--7(19)----7------|
|--------7---7-------7-|-------7(19)---7(19)--7(19)----7------|
|----------------------|---------------------------------0----|
|----------------------|--------------------------------------|
|----------------------|--------------------------------------|


   Q    E   E E  E   E   E
|-----------------------------|
|-----------------------------|
|-----------------------------|
|-12s==11-------h8s==7--------|
|-----------------------------|
|-----------------------------|
|
|  |--3---|   |-----3------|
|  q q    q   q    q   E   E
|-----------------------------|
|-----------------------------|
|----0----0---0----0-------2--|
|----2----2---2----2-------2--|
|-----------------------------|
|-----------------------------|


  Gtr I
                     PM------|
  +W           E E E E E E E E   E E E E E E E E
|------------|-----------------|-----------------||
|------------|-----------------|---------------7-||
|-(2)--------|-x---------------|-2-2-2-2-2-2---7-||
|-(2)--------|-x-----2-2-2-2-2-|-2-2-2-2-2-2---7-||
|------------|-------0-0-0-0-0-|-0-0-0-0-0-0---5-||
|------------|-----------------|-----------------||


 Chorus
  +E  E E E E E E E   +E  E E E E E E S S   Q  E E E E E  E
|-------------------|---------------------|-----------------|
|-(7)-8-----------3-|-(3)-4p3---5-6p5-----|-7--8---------10-|
|-(7)-7-----------3-|-(3)-3-----5-5-------|-7--7---------10-|
|-(7)-7-----------3-|-(3)-3-----5-5-------|-7--7---------10-|
|-(5)-5-------------|---------------------|-5--5----------8-|
|-------0-0-0-0-0---|---------0-------0-0-|------0-0-0-0----|


   +E   E  E  E  E E E E   Q  E E E E E E   +E  E E E E E E E
|------------------------|----------------|-------------------|
|-(10)-11-10----10-8-----|-7--8---------3-|-(3)-4p3---5-6p5---|
|-(10)-10-10----10-9-----|-7--7---------3-|-(3)-3-----5-5-----|
|-(10)-------10----------|-7--7---------3-|-(3)-3-----5-5-----|
|--(8)-------------------|-5--5-----------|-------------------|
|--------------------0-0-|------0-0-0-0---|---------0-------0-|


  Gtr II
  W                   Q      E  S S  E Q     S  S    E  E  Q    E  E  E  E
|-----------------|-------------------------------|------------------------|
|-----------------|-------------------------------|------------------------|
|-----------------|-------------------------------|------------------------|
|-----------------|-------------5-5--5s7---/10-10-|-10s12-12---12-12-12-12-|
|-----------------|-------------------------------|------------------------|
|-----------------|-------------5-5--5s7---/10-10-|-10s12-12---12-12-12-12-|
|
| Gtr I
| Q  E E E E E  E    +E   E  E  E    E E E   E       Q     E E  E  E  E  E
|-----------------|-------------------------------|------------------------|
|-7--8---------10-|-(10)-11-10------10-8----------|--7-----8-------------3-|
|-7--7---------10-|-(10)-10-10------10-9----------|--7-----7-------------3-|
|-7--7---------10-|-(10)-------10-----------------|--7-----7-------------3-|
|-5--5----------8-|--(8)--------------------------|--5-----5---------------|
|------0-0-0-0----|----------------------0---0----|----------0--0--0--0----|


   E   E E  S  S  E  E  E E   E E S S E  E   Q    E
|---------------------------|-----------------------|
|---------------------------|--------------------10-|
|----------12-12-12s10-10s9-|-9s7-7-7-7\---/11------|
|-12--12\-------------------|-----------------------|
|----------10-10-10s=8--8s7-|-7s5-5-5-5\------------|
|-12--12\-------------------|-----------------------|
|
| +E   E E  E     E  E  E E   Q   E   E  E   E E  E
|---------------------------|-----------------------|
|-(3)--4p3--------5--6p=5---|-7---8--------------10-|
|-(3)--3----------5--5------|-7---7--------------10-|
|-(3)--3----------5--5------|-7---7--------------10-|
|---------------------------|-5---5---------------8-|
|-----------0-------------0-|---------0--0---0-0----|


                                ~~~~~~
    E   E       +S   +S   E  E  Q.
|------------------------------------------|
|--13--13pb15==(15)r(13)p10h13-13pb15------|
|------------------------------------------|
|------------------------------------------|
|------------------------------------------|
|------------------------------------------|
|
|  +E   E        E        E  E  E     E E
|------------------------------------------|
|-(10)-11-------10----------10--8----------|
|-(10)-10-------10----------10--9----------|
|-(10)-------------------10----------------|
|--(8)-------------------------------------|
|-------------------------------------0-0--|


                            T           T
                               |3-|  |3-|
  E  E      +S   +S   S  S  E  E  S  E  S  S  S
|-----------------------------------------------|
|---13b14==(14)r(13)p10h13-15p13p10h13-17p13p10h|
|-----------------------------------------------|
|-----------------------------------------------|
|-----------------------------------------------|
|-----------------------------------------------|
|
| Q          E        E     E  E     E     E
|-----------------------------------------------|
|-7----------8-----------------------------3----|
|-7----------7-----------------------------3----|
|-7----------7-----------------------------3----|
|-5----------5----------------------------------|
|---------------------0-----0--0-----0----------|


       T                T           T            T     ~~
          |--3--|                             |--3--|
   S   S  S  S  S  +S   S  S  S  S  S  S  S   S  S  S  E
|--------------------------------------------------------|
|-13--15p13p10h13-(13)-17p13p10h13-15p13p10--------------|
|-------------------------------------------h12-14p12p10-|
|--------------------------------------------------------|
|--------------------------------------------------------|
|--------------------------------------------------------|
|
| +E      Q                E     E     E      E        E
|--------------------------------------------------------|
|-(3)-----4----------------------5-----6p=====5----------|
|-(3)-----3----------------------5-----5-----------------|
|-(3)-----3----------------------5-----5-----------------|
|--------------------------------------------------------|
|--------------------------0---------------------------0-|


   ~~~
   Q.      E  a  E  E  E  E
|---------------------------------|
|------------------------10b10.5==|
|-10\-----------10-------10b11----|
|------------10p12-10-12----------|
|--------/12----------------------|
|---------------------------------|
|
|  Q   E   E     E  E  E  E
|---------------------------------|
|--7---8--------------------------|
|--7---7--------------------------|
|--7---7--------------------------|
|--5---5--------------------------|
|----------0-----0--0--0--0-------|


   E  E  E  E  E  S  S E   E    E  E  E  E  E     +Q     E
|----------------------------|--------------------------13b15==|
|-------10-------------------|-------------13b15r(13)----------|
|-------10-10-10--9s12s9-/10-|-10-10-10s=9---------------------|
|-12-------------------------|---------------------------------|
|----12-------------------/8-|--8--8--8s=7---------------------|
|----------------------------|---------------------------------|
|
|  E  E  E  E  E  E    E   E    E  E  E  E  E      E  E  E
|----------------------------|---------------------------------|
|----10-10-10-10--8-------10-|-10-10-10-10-10------8----11-----|
|----10-10-10-10--9-------10-|-10-10-10-10-10------9----10-----|
|----10-10-10-10-10-------10-|-10-10-10-10-10-----10----10-----|
|-----8--8--8--8-----------8-|--8--8--8--8---------------8-----|
|--0-------------------0-----|------------------------0--------|


                     H.=H
    E   +E   E  E  E  E  E  E
|--13r=(13)-13-12-11-10------------|
|-----------------------13-13pb15==|
|----------------------------------|
|----------------------------------|
|----------------------------------|
|----------------------------------|
|
|  +E    E   E  E  E  E  E  E
|----------------------------------|
|-(11)--10--10-10-10--8-----7------|
|-(10)--10--10-10-10--9-----7------|
|-(10)--10--10-10-10-10-10S=7------|
|--(8)---8---8--8--8--------5------|
|---------------------------0------|


                      ~~~~~
                   |---3----|
   +S   +S   S  S  E  E     E  S     +S   S  S  S  T  T  S  S
|-------------------------------------------------------------:
|-(13)r(13)p10----10-------10---------------------------------:
|--------------12----12b13----12b13r(12)p10----12-------10h11-:
|-------------------------------------------12----12-12-------:
|-------------------------------------------------------------:
|-------------------------------------------------------------:
|
|  +W
|-------------------------------------------------------------:
|--(7)--------------------------------------------------------:
|--(7)--------------------------------------------------------:
|--(7)--------------------------------------------------------:
|--(5)--------------------------------------------------------:
|--(0)--------------------------------------------------------:


                                  \2
   |--3---|  |-3--|  |-3--|
   S   S  S  S S  S  S  S S E E E E  +E    +Q   Q  H       W
|----------------------------------------:--------------:-------------*|
|----------------------------------------:--------------:-------------*|
|----------------------------------------:--------------:-------------*|
|----------------------------------------:--------------:-------------*|
|-10h=12p11p10s9h10h12p10p9s7s5-3s0--(0)-:-(0)----------:-------------*|
|----------------------------------------:--------------:-------------*|
|
|                                           >
| +W                                       +W              Q  Q  H
|----------------------------------------:--------------:-------------*|
|-(7)------------------------------------:-(7)----------:-^7----------*|
|-(7)------------------------------------:-(7)----------:-^7----------*|
|-(7)------------------------------------:-(7)----------:-^7----------*|
|-(5)------------------------------------:-(5)----------:-^5----------*|
|-(0)------------------------------------:-(0)----------:-^0----------*|
Comments