Van Halen - Unchained Chords & Tabs

 

Unchained Chords & Tabs

Van Halen Chords & Tabs

Version: 1 Type: Tab 0 ratings
1 star 2 stars 3 stars 4 stars 5 stars
comments

Unchained Tab

   
#----------------------------------PLEASE NOTE--------------------------------#
#This file is the author's own work and represents their interpretation of the#
#song. You may only use this file for private study, scholarship, or research.#
#-----------------------------------------------------------------------------#
#-- File created with Instab - http://www.pconline.com/~smcarey/instab.html --#
#-----------------------------------------------------------------------------#

Author/Artist: Van Halen
Title: Unchained
Album: Fair Warning
Transcribed by: Andrew
Email: chocolatestarfish316@triad.rr.com

This is an awesome song...

Eb tuning
Intro/Chorus

-2-3--------------------2-3----------5-6-5-5----------------------------------
-3-3---------3-4-5-6-5--3-3----------6-6-6-6-5--------------------------------
-2-2---------3-3-5-5-5--2-2----------5-5-5-5-5--------------------------------
-----0x0x0x0-3-3-5-5-5------0x0x0x0----------5--------------------------------
------------------------------------------------------------------------------
------------------------------------------------------------------------------
 (just repeat the riff a few times)                                           
[ Tab from: http://www.guitartabs.cc/tabs/v/van_halen/unchained_tab.html ]
------------------------------------------------------------------------------
------------------------------------------10--------8-------------------------
-------------3-----5-------------------------10-------9-----------------------
-------0---3---------5-----------5/10-----------10----------------------------
-3b5-3---3-----5/7------3b5-3-5-------10--------------------------------------
------------------------------------------------------------------------------
 verse....................................................................... 

------------------------------------------------------------------------------
------------------------------------------------------------------------------
--7----7---------7\5--7-------7----7\5-7-----------9---9---------9-7-9--------
--5-5--5----5--5-5\3--5-------5----5\3-7-------7-7-7-7-7----7----7-5-7--------
---------5--------------5--3-----5-------3--7---------------7-----------------
------------------------5--3-----5-------3--7---------------7-----------------
 pre chorus.................................................................  

------------------------------------------------------------------------------
------------------------------------------------------------------------------
-----------9--9---------------------------------------------------------------
---0----7--7--7---------------------------------------------------------------
-7---7----------5--7--6--5--3-------------------------------------------------
-7--------------5--7--6--5--3-------------------------------------------------
 chorus is the same as the intro, I'll do the solo later                      

Comments