Van Halen - Top Of The World Chords & Tabs

 

Top Of The World Chords & Tabs

Van Halen Chords & Tabs

Version: 3 Type: Tab 0 ratings
1 star 2 stars 3 stars 4 stars 5 stars
comments

Top Of The World Tab

Van Halen- Top of the World 
Intro
Standard Tuning


e|------------------------------------------|
B|-5-5-x-4-4-x-2-2-2--5-5-5-4-4-5-0-0-0-----|
G|------------------------------------------|
D|------------------------------------------|
A|------------------------------------------|
E|------------------------------------------|

e|------------------------------------------|
B|-5-5-4-4-5-5------------------------------|
G|------------------------------------------|
D|--------------4-4-2-2---------------------|
A|--------------2-2-0-0-2-------------------|
E|----------------------0-------------------|
[ Tab from: http://www.guitartabs.cc/tabs/v/van_halen/top_of_the_world_tab_ver_3.html ]
e|------------------------------------------|
B|-5-5-x-4-4-x-2-2-2--5-5-5-4-4-5-0-0-0-----|
G|------------------------------------------|
D|------------------------------------------|
A|------------------------------------------|
E|------------------------------------------|

e|------------------------------------------|
B|-5-5-4-4----------------------------------|
G|------------------------------------------|
D|----------\ps-4-4-2-2-9-let ring----------|
A|----------\ps-2-2-0-0-7-let ring----------|
E|------------------------------------------|

e|---------------------------12^ 12^--------|
B|-5-4-0-5-4/9-10-9-7-----------------------|
G|--------------------9---------------------|
D|------------------------------------------|
A|------------------------------------------|
E|------------------------------------------|

It might not be entirely accurate, but it sounds good to me! Very fun to play, good luck.
Comments