Van Halen - Top Jimmy Chords & Tabs

 

Top Jimmy Chords & Tabs

Van Halen Chords & Tabs

Version: 1 Type: Tab 2 ratings
1 star 2 stars 3 stars 4 stars 5 stars
comments

Top Jimmy Tab

-ethan-
song: top jimmy
 artist: van halen





Intro
--------------------------12--------------------------------------------------7---
---------------12---------------12----------------------------------7-------------
-----------12--------12---------------12-------------------------7-------7--------
-------12------------------------------------12---------------7-------------------
-------------------------------------------------12--------7----------------------
-12--------------------------------------------------12---------------------------


---5---------------------------------------------0-------------------------------
------5-----7---------------------------12------------12-------------------------
---------------7--------------------12-------12-----------12---------------------
------------------7-------------12------------------------------12---------------
---------------------7------12--------------------------------------12---------7-
------------------------12----------------------------------------------12--7----


--------------7-----------------------------------------------------------------------
-------7----------7-----5-----------------------------12------12----12----------------
----7------7---------7-----7------7---------------12------12------------12------------
-7-----------------------------------7--------12----------------------------12--------
------------------------------7-------------------------------------------------12----
----------------------------------------12-----------------------------------------12-

[ Tab from: http://www.guitartabs.cc/tabs/v/van_halen/top_jimmy_tab.html ]
-----------------7--------------------------------------12---0h12--------------------7-
----------7-------------------------------------12-----------------------------7-------
-------7-----7--------------------------------------12----------------------7-----7----
----7---------------------------------------12---------------------------7-------------
-7---------------------53p0--/3--3-0---------------------------------7----------------
-----------------------53p0--/3--3-0---12-------------------------7-------------------


                 
---------------------------------------12--------------------------------------7----
-------------------------------12-----------12---------------------------7----------
-----------------------------------12-----------12--------------------------7-------
---------------------------12-------------------------12--------------7-------------
-53--0-/3--3--0------------------------------------------12--------7---------------
-53--0-/3--3--0---12--12-------------------------------------12--7-----------------


     
----------------------------------12----------------------------------------7------
---------------------------12-----------12-------------------------7---------------
------------------12-----------12------------12-----12----------7-------7----------
------------------12-----------------------------------------7---------------------
-53--0-/3--3--0-----12-----------------------------------7------------------------
-53--0-/3--3--0--------12---------------------------------------------------------


-------------------------------------------------------------
--------------------5p4-----5p4---5p43---3p2---3p2---3p2----
----------------5---5p4h5---5p4---5p43---3p2---3p2---3p2p0--
-5--3----3/53--5---5p4h5---5p4---5p43---3p2---3p2---3p2p0--
-5--3----3/53--5--------------------------------------------
-5--3p0--3/53--5--------------------------------------------


main verse riff 
------------------------------------------------------------------------------------
-7-------7-----6-------------6--6------------------5---5--5--------------4----------
-7-------7-----5-------------5--5------------------5---5--5-------------------------
-7-------7-----7-------------7--7--------5---5--5------------0----3h5--5---3p0--3---
---5-5-----5-5---5--5-5-5-5--------5--5---------------------------------------------
------------------------------------------------------------------------------------


-----------------
-3--3---3--------
-3--3---3--------
-----------3p0---
-----------------
-----------------
Comments