Van Halen - Spanish Fly Chords & Tabs

 

Spanish Fly Chords & Tabs

Van Halen Chords & Tabs

Version: 3 Type: Tab 0 ratings
1 star 2 stars 3 stars 4 stars 5 stars
comments

Spanish Fly Tab

This Version is 99.9% acurate worth a shot
------------------------------------------

the intro is pretty simple , the ( ) means u gotta tap that note and the number infront 
it means u gotta hold that note.

Part 1
----------------------------------------------------------------------|
-------------------------------------------0(12)----------------------|
-------------------------------------2(14)------2(14)-----------------|
-------------------------2(14)-2(14)----------------------------------|
-------------2(14)-2(14)----------------------------------------------|
-0(12)-0(12)----------------------------------------------------------|

----------------------------------------------------------------------|
-------------------1(13)-2(15)-0(12)----------------------------------|
-------------2(14)----------------------------------------------------|
-------2(14)----------------------------------------------------------|
-0(12)----------------------------------------------------------------|
-----------------------------------------------REPEAT-----------------|
after doing the first part follow with


Part 2 :
This part standard Eddie van Halen tap pulling pulling hammer hammer
basicly you tap the 12 and pull the 7 and 5 and hamer 5 and 7

----------------------------------------------------------------------|
-(12)-7-5-0-5-7-==4x==------------------------------------------------|
-------------------------(12)-7-5-0-5-7-==4x==------------------------|
----------------------------------------------------------------------|
----------------------------------------------------------------------|
----------------------------------------------------------------------|

----------------------------------------------------------------------|
-----------------------------------5h---7h-----12h--------------------|
-----------------------------------5h---7h-----12h-----7h-------------|
---------------------------------5h---7h----12h--------7h-------------|
-(12)7--(12)6--(12)5--(12)3--0----------------------7h----------------|
----------------------------------------------------------------------|

the h is harmonic , the one that you put your finger as mut over fret.


Speed Part :
This part is very important to do slow then to do it fast learn it slowly and with time 
can raise the tempo

----------------------------------------------------------------------|
----------------------------------------------------------------------|
-------------------4-5---4-5-7-5-4---4-5-7-8--------------------------|
-------------4-5-7-----7-----------7----------------------------------|
-3-4-5-6-5-7----------------------------------------------------------|
----------------------------------------------------------------------|

---------7-8-10---------7-8-10----------8-10-12---------8-10-12-------|
-7-8-10----------7-8-10---------8-10-12---------8-10-12---------------|
----------------------------------------------------------------------|
----------------------------------------------------------------------|
----------------------------------------------------------------------|
----------------------------------------------------------------------|

----------10-12-14----------10-12-14-----------15-13-12---12---------0-|
-10-12-14----------10-12-14-----------12-13-15--------------13-------0-|
--------------------------------------------------------------14-------|
----------------------------------------------------------------15-----|
-----------------------------------------------------------------------|
-----------------------------------------------------------------------|


Second Speed Part :
as usualy , practice this slowly then do it faster

--7-5-7-6-5-4-5-7-5-7-5-4---------------------------------------------|
--5-----------------------7-7-5-4---5-4---4-----5-4---4---------------|
--5-------------------------------7-----7---7-5-----7---7-5-4---------|
--------------------------------------------------------------7-------|
----------------------------------------------------------------------|
----------------------------------------------------------------------|
[ Tab from: http://www.guitartabs.cc/tabs/v/van_halen/spanish_fly_tab_ver_3.html ]
----------------------------------------------------------------------|
----------------------------------------------------------------------|
-------4-----4-5-7-5-4---4-----4-5---4-5-7-5-4---4-----4-5------------|
-4-5-7---5-7-----------7---5-7-----7-----------7---5-7-----7----------|
----------------------------------------------------------------------|
----------------------------------------------------------------------|

----------------------------------------------------------------------|
----------------------------------------------------------------------|
-4-5-7-4-5---5-7-5-4---4----------------------------------------------|
-----------7---------7---7-5-4---4------------------------------------|
-------------------------------7--------------------------------------|
----------------------------------------------------------------------|

Intro To tapping Part :
This part you tap the 12t note on an open string and hammer the notes

----------------------------------------------------------------------|
-0(12)h3--0(12)h7--repeatx4---0(12)h5--0(12)h9--repeatx4--------------|
----------------------------------------------------------------------|
----------------------------------------------------------------------|
----------------------------------------------------------------------|
----------------------------------------------------------------------|

Edwards famous tapping section :
the notes to tap will be in ( ) and following it will be the note to hold to tap on and 
last no will be the one to hammer on.

----------------------------------------------------------------------|
----------------------------------------------------------------------|
--------------------------(12)-5-9-x4---(12)-4-9-x8---(12)-4-8-x8-----|
--------------(12)-5-9-x2---------------------------------------------|
-(12)-5-9-x2----------------------------------------------------------|
----------------------------------------------------------------------|

----------------------------------------------------------------------|
----------------------------------------------------------------------|
-------------------(10)-3-7-x4--(10)-2-7-x8--(9)-3-7------------------|
----------(10)-3-7----------------------------------------------------|
-(10)-3-7-------------------------------------------------------------|
----------------------------------------------------------------------|

----------------------------------------------------------------------|
----------------------------------------------------------------------|
----------------------------------------------------------------------|
-------------------(12)-5-9-x4--(12)-4-9-x8--(11)-4-8-x8--------------|
----------(12)-5-9----------------------------------------------------|
-(12)-5-9-------------------------------------------------------------|

----------------------------------------------------------------------|
----------------------------------------------------------------------|
----------------------------------------------------------------------|
----------------------------------------------------------------------|
-(12)-5-9-x4--(12)-4-9-x4--(11)-3-7--(10)-3-7-(10)-3-7--(9)-3-7-x5----|
----------------------------------------------------------------------|

----------------------------------------------------------------------|
----------------------------------------------------------------------|
----------------------------------------------------------------------|
----------------------------------------------------------------------|
-(9)-2-6-x5------0(12)2h--0(12)6h--x4---------------------------------|
----------------------------------------3-2---------------------------|

IMPORTANT:
at the last part when u do the 3 - 2 , after you done the 2 , immediately
close your sound bring the volume down to end and close it , then do an open string on 
big string , and slowly open your vollume again


Finaly:
after you done the last part and u opened volume again , wait 4 seconde
and do the folllowing

-------------------------------------------------0(12)----------------|
-------------------------------------0(12)-0(12)----------------------|
-------------------------2(14)-2(14)----------------------------------|
-------------2(14)-2(14)----------------------------------------------|
-2(14)-2(14)----------------------------------------------------------|
----------------------------------------------------------------------|

well this is it for spanish fly hopefully you will learn and have fun
this tab is 99.9% acurate
Comments