Van Halen - Somebody Get Me A Doctor Chords & Tabs

 

Somebody Get Me A Doctor Chords & Tabs

Van Halen Chords & Tabs

Version: 3 Type: Tab 0 ratings
1 star 2 stars 3 stars 4 stars 5 stars
comments

Somebody Get Me A Doctor Tab

Tuning: Standard
                                        (whammy bar)
--------------------|-------------------------------|
---3----3----3------|---3----3----------------------|
---0----0----2------|---0----0----2-----------------|
---0----x----0------|---0----x----2---2-------------|
---x----3-----------|---x----3----0---2-------------|
---3----------------|---3-------------0-------------|

--------------------------------------|
--------------------------8--7--------|
-------------0-2----------7--7--------|
---2-2-------0-2-----5----7--7--------|
---3-0-0-0-0------7/-5----------------|
------------------------5-------------|
      (pm--)           (pm)
--------------------------------------|
--------------------------8--7--------|
-------------0-2----------7--7--------|
---2-2-------0-2-----5----7--7--------|
---3-0-0-0-0------7/-5----------------|
------------------------5-------------|
      (pm--)           (pm)
-----------------------------------------|
-----------------------------------------|
----9--9--------------10--10-------------|
----9--9--------------10--10-------------|
----7--7---------------------------------|
---------7--7--7--7----------7--7--7--7--| (harmonics)

-----------------------------------------|
-----------------------------------------|
----9--9--------------10--10-------------|
----9--9--------------10--10-------------|
----7--7---------------------------------|
---------7--7--7--7----------7--7--7--7--| (harmonics)
[ Tab from: http://www.guitartabs.cc/tabs/v/van_halen/somebody_get_me_a_doctor_tab_ver_3.html ]
--------------------------------------|
--------------------------8--7--------|
-------------0-2----------7--7--------|
---2-2-------0-2-----5----7--7--------|
---3-0-0-0-0------7/-5----------------|
------------------------5-------------|
      (pm--)           (pm)
--------------------------------------|
--------------------------8--7--------|
-------------0-2----------7--7--------|
---2-2-------0-2-----5----7--7--------|
---3-0-0-0-0------7/-5----------------|
------------------------5-------------|
      (pm--)           (pm)
------------------------------------------------------------------------|
------------------------------------------------------------------------|
----9--9--------------10--10--------------11--11---------------12--12---|
----9--9--------------10--10--------------11--11---------------12--12---|
----7--7----------------------------------------------------------------|
---------7--7--7--7----------7--7--7--7----------7--7--7--7-------------|harmonics

---------------------------------------|
--------5px-----7p5------------5v------|
--------5p0-----7p5------------5v------|
--2--2------7-7-----7~~--------5v------|
--0--0---------------------------------|
---------------------------------------|

---------------------------------------|
--------5px-----7p5------------5v------|
--------5p0-----7p5------------5v------|
--2--2------7-7-----7~~--------5v------|
--0--0---------------------------------|
---------------------------------------|

---------------------------------------|
--------5px-----7p5------------5v------|
--------5p0-----7p5------------5v------|
--2--2------7-7-----7~~--------5v------|
--0--0---------------------------------|
---------------------------------------|

---------------------------------------|
--------5px-----7p5------------5v------|
--------5p0-----7p5------------5v------|
--2--2------7-7-----7~~--------5v------|
--0--0---------------------------------|
---------------------------------------|

Solo (later)

Notation used:
pm-palm mute
v-volumn swell
p-pull off
~-vibrato
/-slide up
x-muted note
Comments