Van Halen - Runnin With The Devil Chords & Tabs

 

Runnin With The Devil Chords & Tabs

Van Halen Chords & Tabs

Version: 4 Type: Bass Tab 0 ratings
1 star 2 stars 3 stars 4 stars 5 stars
comments

Runnin With The Devil Bass Tab

Tuning: Standard

-------------------------|-----| Intro
------------------------.|-----|
------------------------.|-----|
-0--0--0--0--0--0--0--0--|-12/-|

--------------------------------------------------|
-------------------------------------------------.|
-------------------------------------------------.|
-3--5--5--5--5--5--5--5--5--5--5--5--5--5--5/--0--|

-------------------------|-----|
------------------------.|-----|
------------------------.|-----|
-0--0--0--0--0--0--0--0--|-12/-|
[ Tab from: http://www.guitartabs.cc/tabs/v/van_halen/runnin_with_the_devil_btab_ver_4.html ]
--------------------------------------------------|
-------------------------------------------------.|
-------------------------------------------------.|
-3--5--5--5--5--5--5--5--5--5--5--5--5--5--5/--0--|

-------------------------|-----|
------------------------.|-----|
------------------------.|-----|
-0--0--0--0--0--0--0--0--|-12/-|

Solo
-------------------------------------------------------|
-------------------------------------------------------|
-------------------------------------------------------|
--5---------------3--------------5-------------3----0--|

-------------------------|-----| Outro
------------------------.|-----|
------------------------.|-----|
-0--0--0--0--0--0--0--0--|-12/-|

Notation used:
/-slide
Comments