Van Halen - Panama Chords & Tabs

 

Panama Chords & Tabs

Van Halen Chords & Tabs

Version: 2 Type: Tab 11 ratings
1 star 2 stars 3 stars 4 stars 5 stars
comments

Panama Tab

   
-------------------------------------------------------------------------------
			     Panama by Van Halen
-------------------------------------------------------------------------------
Tabbed by:ZeppelinHaze

Intro
P.M  --     --    --    --     -         --    --                  
e|---------------------------------------------------------------------------|
B|-9-----10-----7-----9-----10---7-----7-----8-----5-(5)-----0wb-------------|
G|-9------9-----8-----9------9---8-----7-----7-----6—(6)---x-----------------|
D|-9------9-----9-----9------9---9-----7-----7-----7—(7)-x-------------------|
A|---7-7----7-7---7-7---7-7----7---7s5---5-5---5-5---------------------------|
E|---------------------------------------------------------------0—(0)-------|
               
     --     --     --    --     -          --    --                 
e|---------------------------------------------------------------------------|
B|-9-----10------7-----9-----10---7------7-----8-----5—(5)--xps--------------|
G|-9------9------8-----9------9---8------7-----7-----6—(6)--xps--------------|
D|-9------9------9-----9------9---9------7-----7-----7—(7)-------------------|
A|---7-7----7-7----7-7---7-7----7----7s5---5-5---5-5-------------------------|
E|---------------------------------------------------------------------------|

             --------         -
e|-0-0--0--------------------------------------------------------------------|
B|-4-4--5--------------4—-5p4---4s2--2--2-(2)-------------------4------------|
G|-6-6--6--------------4--4-----4s2--2--2—(2)-----------6-6-6-----6----------|
D|-6-6--6--------------4--4----------2--2—(2)-----------6-6-6-------6--------|
A|-4-4--4----4-4-4-4-4--------0------0--0—(0)—2ph~~~--0-4-4--4---------------|
E|---------------------------------------------------------------------------|
                                 --------
e|-------------------------------------------0----0---------------------|
B|-4h5--4-4-5p4----4s2--2--2-(2)-----------4--4-----4----------------------|
G|------4-4-4------4s2--2--2—(2)-----------4----4-----4--------------|
D|------4-4-4-----------2--2—(2)-----------4----------------------------------|
A|---------------0------0--0—(0)-0-0-0-0-0-2----------------------------------|
E|----------------------------------------------------------------------------|
                     -    --    -      -       ----        --   -      -    
e|-------------------------------------------------------2---------2---------|
B|----------------------3-----2---3----------------------3-----2---3-2-------|
G|------------2---2-----2---2-2----------------2---2-----2---2-2-------|
D|------------------2---0-0-0-2-----2----5s7s7-------2---0-0-0-2---0-2-------|
A|------------------0-0-------0-0---0----5s7s7-------0-0-------0-0---0-------|
E|---------0-(0)-0---------------------0-------0-0-0-------------------0-----|

           --          --    -     -
e|-------------------2---------2---------------------2----------2---------------|
B|-------------------3-----2---3-2-------------------3-----2----3-2-------------|
G|-------------2-----2-----2---2-2---------------2---2-----2----2-2-------------|
D|-5s7s5-------2-----0-0-0-2---0-2---5s7s5-------2---0-0-0-2----0-2---5s7s5-----|
A|-5s7s5-2-----0-(0)-------0-0---0---5s7s5-2-----0-0-------0-0----0---5s7s5-2---|
E|-------0-0-0---------------------0-------0-0-0--------------------0-------0---|

e|-----------2---------2-----------------------------0-----0-----(0)------------------|
B|-----------3-----2---3-2---------------------------0--2--3-----(3)------------------|
G|-----2-----2-----2---2-2------------------------------2--2-----(2)------------------|
D|-----2-----0-0-0-2---0-2---5s7s5-0—-2wb-----(2)-------------------------------------|
A|-----0-(0)-------0-0---0---5s7s5-0—-2wb-----(2)-------------------------------------|
E|-0-0---------------------0----------0wb-----(0)--0---------0-x--0--0---0------------|

            ---   --     -
e|-------------------------------0--0---------------------0----------------------|
B|-------------------------0--2--3--3-----------------------0-0-----0------------|
G|-------------------------0--2--2----2-(2)------4-4-4--4-------3-----3----------|
D|-x--0--2---------------------------------------4-4-4------------4-------4p2-x--|
A|-x--0--2----------------------------------xps-------------------------4-----x--|
E|----------0-0-0--0-0---0------------------xps--2-2-2---------------------------|

e|----0---------0----------------------------------------0-----0-----------|
B|-------0------0---------------------------------------4-----4-----4---------|
G|-6-------6----6----------------------------------4------4-----4----------------|
D|-6---------6--6----------------------------------4-----------------------------|
A|--4-----------4--xps-------5--------3------------2-----------------------------|
E|-----------------xps—12s-----6-5~~~---4-3~~--2-0-------------------------------|

                    Chorus:      -   -   --    -
e|-----------------------------------------------------------------------2---|
B|-------------------------3-----2---3-2---------------------3---|
G|---------------------------------2---2-----2---2-2-----------------2---2---|
D|---------------------------------2---0-0-0-2---0-2-----------------2---0---|
A|---------------------------------0-0-------0-0---0---0-----2-(2)---0-0-----|
E|-------------------------0-(0)-0-------------------0---3~~-0-(0)-0---------|

                                                    -                -  -
e|--------------------------------2-------------------------------------------|
B|--------3--2------------------2-3------2----3--2----------------------------|
G|-----2--2--2------------------2-2------2----2--2---------------------2------|
D|-----2--0--2------------------2-0--0-0-2----0--2----5s7s5~~~---------2------|
A|-0-0-0-----0---0------2-(2)---0--------0--0----0----5s7s5~~~---------0-0----|
E|-------------0---3~~~-0-(0)-0---------------------0----------0-(0)-0--------|

     --             -                 --  -   
e|-2------------------------------------------------0--0-----(2)---------------|
B|-3-----2---3-----------------------------------0--2--3----—(3)---------------|
G|-2-----2---2--2--------------------------------0--2--2-----(2)---------------|
D|-0-0-0-2---0--2------5s7s5-0--2-------------------------------------0-2------|
A|-------0------0------5s7s5-0--2-------------------------------------0-2------|
E|-----------------(0)----------0-----0-0--0-x-0----------0---0-0--0----0------|
[ Tab from: http://www.guitartabs.cc/tabs/v/van_halen/panama_tab_ver_2.html ]
   ----  --    
e|---------------------0--0-----0-(0)----------------------0-----0------------------|
B|------------------0--2--3-----3—(3)--------------------0---0-----3---0------------|
G|------------------0--2--2---2-------------------4-4--4-------------4---3----------|
D|------------------------------------------------4-4------------------------4s6----|
A|------------------------------------xps---xps----------------------------4--------|
E|-0-0-0--0-0-----0-------------------xps---xps-2-2-2----------2--------------------|

e|-----0-----------------------------------------------------------0-----0-------|
B|-------0---0--(0)-----------------------------------------------4-----4-----4-----|
G|-6----------------6~~--6--6------------------5------------4-------4-----4---------|
D|-6-------6--------6~~--6--6------------------5------------4-----------------------|
A|-4--------------------------------5----------3------------2-----------------------|
E|-----------------------------14s----6-5~~~~----4-3~~~-2-0-------------------------|
 
                        -   -     --             -        
e|-0-0-0------------------------2------------2-----------------------2-------------|
B|-4-4-4----------2----3------------3-2-----------------2---3-----2-------|
G|-4-4-4----------2----2------2-(2)-2-2-----------------2---2-----2-------|
D|-------------------------2----0-0-0--2-(2)-0-2---5s7s5---------2---0-0-0-2-------|
A|-------------------------0-0---------0—(0)---0---5s7s5---------0-0-------0-------|
E|-----------------0-(0)-0-----------------------0-------0—(0)-0-------------------|


e|-2----------------------2----------------------------------2------3-(3)-3---3-----|
B|-3-2---------------2-2--3-----2---3-2----------------------3------3-(3)-3---3-----|
G|-2-2---------------2-2--2-----2---2-2------------------2---2------0-(0)-0---0-----|
D|-0-2---------------2-2--0-0-0-2---0-2----5s7s5---------2---0-0--------------------|
A|---0-----x-5-2-(2)-0-0--------0-----0----5s7s5-2-(2)---0-0-----0--3-(3)-2-0-3p0---|
E|-----0-4-----0—(0)--------------------0--------0—(0)-0----------------------------|

Guitar Solo
e|-------7-7----7-7---------------------------------------7---------------7-----|
B|-7—(7)-7-7----7-7--7--------------------7h10p7---7h10p7---10p7---7h10p7-------|
G|-9b(9)-----9b------9b---9rp8h9-9p-wb--9--------9---------------9--------------|
D|------------------------------------------------------------------------------|
A|------------------------------------------------------------------------------|
E|------------------------------------------------------------------------------|
                              *Hold Bend  
e|---------------------------------------------------------------------------|
B|-10p7---7----------7-------------------------------------------------------|
G|------9---10p9p7-9---7b~~~-r-b—*9b--14-9-12-9-9-14-9-16-9-14-12r-----------|
D|---------------------------------------------------------------------------|
A|---------------------------------------------------------------------------|
E|---------------------------------------------------------------------------|


e|---------------------------------------------------------------------------|
B|-9p7h9h11wbp9p7h9p7~~~~(7)p0—7b—7~~----------------------------------------|
G|------------------------------------9----7br-------------------------------|
D|--------------------------------------9------7-----------------------------|
A|-----------------------------------------------9-8-7-5br-s9h10p9-----------|
E|-----------------------------------------------------------------10--------|

Interlude          - -  -
e|---------------------------------------------------------------------------------|
B|---------------------------------------------------------------------------------|
G|---------------------------------------------------------------------------------|
D|------------------------------------------------------------------9--------------|
A|-7bs2~~~-(2)-s9--10-9----9~~----(9)~~--(9)--10-2s9-10p9----9----7-7-7s9-10p9-----|
E|----------------------10-----10--------------8----------10---10--------------9s--|

                                -   -    --    -    -            -  -          - -
e|--------0----------------------------------------------------------------------------|
B|----------0--------------------------------------------------------------------------|
G|------2-----2~~~---------------------9-----7-----------------------------------------|
D|----0---------------------------9----9-----7----9------------------------------------|
A|----------------3s9—10p9--------7----7----------7---9-(9)p10p9-------9~~--10------|
E|-1-----------------------10---0----0---0-0---0----0------------10--8-8~~---8-8-8-----|

                                                                  -     -  
e|------------------------------------------------------------------------------------|
B|------------------------------------------------------------------------------------|
G|------------------------------------------------------------------------------------|
D|------------------------------------------------------------------------------------|
A|-10---9~~~~--10p9-----9p7~~~----9p7~~~--(7)s2s9—10p9-----9~~-10---10----10s—s7s9----|
E|----8-------------10---------------------------------10—-8~~--8-8--8-8---8s---------|


e|---------------------------------------------------------------------------|
B|---------------------------------------------------------------------------|
G|------------9-----9-----9---9----------------------------------------------|
D|------------9-----9-----9---9----------------------------------------------|
A|-10-9-------7-----7-----7---7-s9~~--10-9------9~~-(9)---10--10--10—9s------|
E|------10-0----0-0---0-0---0--------------10-8-8~~-(8)----8---8---8---------|

   --------   --        ---------   -------------    -------------
e|-----------------------------------------------------------------------------|
B|--------------------------------3----------------3----------------5----------|
G|----------------2--2------------2----------------0----------------4----------|
D|----------------3--3------------0----------------0---------------------------|
A|-2-2-2-2-2--2-2-3------------------------------------------------------------|
E|-0-0-0-0-0--0-0-1-----1-1-1-1-1-2-2-2-2-2-2-2-2--3-3-3-3-3-3-3-3--4----------|

   -------------
e|---------------------------------------------------------------------------------|
B|------------------------------------------------------------4-4-4---4-4-4--------|
G|----------------2-(2)--2-------------0-(0)----------4-(4)-4-4-4-4---4-4-4--------|
D|----------------2-(2)--2----------------------------4—(4)-4-4-4-4---4-4-4--------|
A|----------------0—(0)--0--0-0-0-0-0--1—(1)--1-1-----2—(2)-2-2-2-2---2-2-2--------|
E|-4-4-4-4-4-4-4----------------------------------0-0------------------------------|

That’s it the chorus is the same chorus until the end so enjoy this. 
The notes in ( ) are the ones that ring.


 s  slide
 h  hammer-on
 p  pull-off
 ~  vibrato
   harmonic
 x  Mute note
 ps Pick Slide
 b  Bend
 ph Pinch Harmonic
 WB Whammy Bar
 ~  Vibrato
 PM Palm Muting
 R  release
===============================================================================
Comments