Van Halen - Panama Chords & Tabs

 

Panama Chords & Tabs

Van Halen Chords & Tabs

Version: 1 Type: Bass Tab 0 ratings
1 star 2 stars 3 stars 4 stars 5 stars
comments

Panama Bass Tab

   
Song: Panama
Artist: Van Halen
Rating: HELL YEAH!

I love this song! It's a f*cking great song to play live;-)
My band did a cover of Panama, so I tabbed it and since I knew
Ultimate-Guitar didn't have any, I'd submit it for you guys!
Cheers!

Any request or questions, contact me:
crowley89@gmail.com ;-)

INTRO (part one):
||-------------------------|--------------------------|-------------2-----------|
||-------------------------|--------------------------|-------------------------|
||--4----4--4--4--4--4--4--|--4--4--4--4--4--4--2--2--|--2--0----0-----0--0--0--|
||-------------------------|--------------------------|-------------------------|


--------------------------||
--------------------------||
--0--0--0--0--0--0--0--4--|| x2
--------------------------||


INTRO (part two)
||-------------------|-------------------------|
||-------------------|-------------------------|
||-------------------|-------------------------|
||----------------0--|----0--0--0--0--0--0--0--|


-------------------------|--------------------------|-------------------------|
-------------------------|--------------------------|-------------------------|
--------------0----------|--------------------------|--------------0----------|
--0--0--0--0-----3----0--|--0--0--0--0--0--0--0--0--|--0--0--0--0-----3----0--|


--------------------------|-------------------------|--------------------------|
--------------------------|-------------------------|--------------------------|
--------------------------|--------------0----------|--------------------------|
--0--0--0--0--0--0--0--0--|--0--0--0--0-----3----0--|--0--0--0--0--0--0--0--0--|


--------------------------||
-----------------0--1--2--||
--------0--1--2-----------||
--0--4--------------------||


VERSE
||--------------------------|--------------------------|
||--------------------------|--------------------------|
||--------------------------|--------------------------|
||--0--0--0--0--0--0--0--0--|--0--0--0--0--0--0--0--0--|


--------------------------|--------------------------||
--------------------------|--------------------------||
--------------------------|--------------------------||
--0--0--0--0--0--0--0--0--|--0--0--0--0--0--0--0--0--||


PRE-CHORUS
||------------------------|--------------------------|
||---------------4--4--4--|--4--4--4--4--------------|
||------------------------|-----------------1--2--3--|
||--2----2----2-----------|--------------2-----------|


|-----------------------|--------------------------|
|-----------------------|--------------------------|
|--4----4----4----4-----|--4-----4--4--4--4--4--4--|
|--------------------4--|-----4--------------------|


----------------------|-----------------------||
----0-----------------|-----------------------||
-------1--0--------3--|--------------------2--||
----------------------|--4--3------2----0-----||


1st CHORUS (almost the same shit as Intro 2)
||-------------------|-------------------------|-------------------------|
||-------------------|-------------------------|-------------------------|
||-------------------|-------------------------|-------------------------|
||----------------0--|----0--0--0--0--0--0--0--|--0--0--0--0--0--3----0--|


--------------------------|-------------------------|--------------------------|
--------------------------|-------------------------|--------------------------|
--------------------------|-------------------------|--------------------------|
--0--0--0--0--0--0--0--0--|--0--0--0--0--0--3----0--|--0--0--0--0--0--0--0--0--|


-------------------------|--------------------------|--------------------------||
-------------------------|--------------------------|--------------------------||
-------------------------|--------------------------|--------0--2----0---------||
--0--0--0--0--0--3----0--|--0--0--0--0--0--0--0--0--|--0--3--------3---3----0--||

[ Tab from: http://www.guitartabs.cc/tabs/v/van_halen/panama_btab.html ]
2nd CHORUS
||-------------------|-------------------------|-------------------------|
||-------------------|-------------------------|-------------------------|
||-------------------|-------------------------|-------------------------|
||----------------0--|----0--0--0--0--0--0--0--|--0--0--0--0--0--3----0--|


--------------------------|-------------------------|--------------------------|
--------------------------|-------------------------|--------------------------|
--------------------------|-------------------------|--------------------------|
--0--0--0--0--0--0--0--0--|--0--0--0--0--0--3----0--|--0--0--0--0--0--0--0--0--|


-------------------------|--------------------------|-----------------------||
-------------------------|--------------------------|-----------------------||
-------------------------|-----------------0--2--3--|----2----0----3--0--2--||
--0--0--0--0--0--3----0--|--0--0--0--0--0-----------|-----------------------||


GUITAR F*CKING SOLO
||-------------------------|-------------------------|--------4-----------------|
||-------------------------|-------2-----------------|--------------------------|
||----2--2--2--2--3--4-----|----------------0--1--2--|--2--2-----2--2--3--4-----|
||----------------------0--|----0-----0--3-----------|-----------------------0--|


-------------------------|--------------------------|--------------------------|
-------------------------|-----------------0--2-----|--------2--------0--------|
----------0--2-----0--2--|--2--2--2--2--2-----------|--------------------4--3--|
----0--3--------3--------|-----------------------0--|--0--0-----0--0-----------|


--------5-----------------|------------------------|-------------------||
-----------------------0--|----0--0----0-----------|-------------------||
--3--3-----3--3--3--4-----|---------------3--------|-------------------||
--------------------------|------------------3--2--|--0----------------||

BRIDGE AFTER SOLO
||--------------------------|--------------------------|
||--------------------------|--------------------------|
||--------------------------|--------------------------|
||--0--0--0--0--0--0--0--1--|--1--1--1--1--1--1--1--2--|


--------------------------|--------------------------|
--------------------------|--------------------------|
--------------------------|--------------------------|
--2--2--2--2--2--2--2--3--|--3--3--3--3--3--3--3--4--|


--------------------------|--------------------------|
--------------------------|--------------------------|
-----------------------0--|--0--0--0--0--0--0--0--1--|
--4--4--4--4--4--4--4-----|--------------------------|


--------------------------|--------------------------|-------------------||
--------------------------|--------------------------|-------------------||
--1--1--1--1--1--1--1--2--|--2--2--2--2--2--2--0--2--|-------------------||
--------------------------|--------------------------|----------------0--||

3RD CHORUS
||-------------------------|-------------------------|--------------------------|
||-------------------------|-------------------------|--------------------------|
||-------------------------|-------------------------|--------------------------|
||----0--0--0--0--0--0--0--|--0--0--0--0--0--3----0--|--0--0--0--0--0--0--0--0--|


-------------------------|--------------------------|-------------------------|
-------------------------|--------------------------|-------------------------|
-------------------------|--------------------------|-------------------------|
--0--0--0--0--0--3----0--|--0--0--0--0--0--0--0--0--|--0--0--0--0--0--3----0--|


-------------------------|-------------------------|--------------------------|
-------------------------|-----------------0-------|--------------------------|
-------------------------|--------0--0--2----------|--------------------------|
----0--0--0--0--0--0--0--|--0--3----------------0--|--0--0--0--0--0--0--0--0--|


--------------------------|--------------------------|------------------------||
--------------------------|--------------------------|------------------------||
----------------0---------|--------------------------|--------------2---------||
--0--0--0--0--3---3----0--|--0--0--0--0--0--0--0--0--|--0--0--0--0-----3------||


| /  slide up
| \  slide down
| h  hammer-on
| p  pull-off
| ~  vibrato
| +  harmonic
| x  Mute note
===============================================================================
Comments