Van Halen - Me Wise Magic Chords & Tabs

 

Me Wise Magic Chords & Tabs

Van Halen Chords & Tabs

Version: 3 Type: Tab 0 ratings
1 star 2 stars 3 stars 4 stars 5 stars
comments

Me Wise Magic Tab

I did not make this tab i copied it off another website i posted it since i though many
might enjoy it and it is a hard tab to find. enjoy



Intro
   
   
     speed : moderne rock ( 100 )
||---------------------------------|-------------2-(2)---------------||
||o-----------2--------------------|-----------2--------------------o||
||------4-(4)---4-(4)--------------|-----4-(4)-----------------------||
||----4----------------------------|---4-----------------------------||
||o-2------------------------------|-2------------------------------o||
||--------------------3-(3)-5--3h5-|-------------------3-(3)-5--3h5--||
repeat 5 times

   
|---------------------------------------------------|-----------------|
|---------------------------------------------------|-----------------|
|-4-(4)--4-(4)-(4)-(4)--(4)-------------------------|------------4/---|
|-4-(4)--4-(4)-(4)-(4)--(4)-4--(4)-(4)--(4)-(4)-(4)-|-(4)--------4/-2-|
|-2-(2)--2-(2)-(2)-(2)--(2)-4--(4)-(4)--(4)-(4)-(4)-|-(4)-------------|
|---------------------------2--(2)-(2)--(2)-(2)-(2)-|-(2)-------------|


|--------------------------------------------|
|----14----------12---12----10-----9-----7---|
|-14----------13------------11-----9-----8---|
|-14-------14------------12----2-9---2-9---2-|
|--------------------------------------------|
|-------12-----------------------------------|


|--------------------------|-----------------------------||
|---5-------3---5-(5)------|-----------------------------||
|---5-----4---4-4-(4)------|---4-4---4-4---4-(4)---------||
|-5---2-5-----4-2-(2)------|---4-4---4-4---4-(4)---------||
|-------------2-2-(2)------|---2-2---2-2---2-(2)---------||
|------------------------2-|-5-----5-----5-------------0-||



||--------------------------------------------------------------------|
||o-------------------------------4-----------------------------------|
||----2-2---2-2---2-2---2------------|------2-2---2-2---2-2---2-2-3s2p|
||----2-2---2-2---2-2---2------------|------2-2---2-2---2-2---2-2-----|
||o---0-0---0-0---0-0---0-0-3p2------|------0-0---0-0---0-0---0-0-----|
||--3-----3-----3-----3---------3b5==|=(3)r-----3-----3-----3---3b5===|


|-------------------------------------|
|-------------------------------------|
|------2-2---2-2---2-2---2------------|
|------2-2---2-2---2-2---2------------|
|------0-0---0-0---0-0---0-0-3p2------|
|-(3)r-----3-----3-----3---------3b5==|


|-----------------------------------------|
|------------------------5-----6---7------|
|------2-2---2-2---2-(2)------------------|
|------2-2---2-2---2-(2)-5-5p0-6p0-7------|
|------0-0---0-0---0-(0)------------------|
|-(3)r-----3-----3-------------------3b5==|


|---------------------------------------|
|---------------------------------------|
|------2-2---2-2---2-2---2--------------|
|------2-2---2-2---2-2---2--------------|
|------0-0---0-0---0-0---0---0-3p2------|
|-(3)r-----3-----3-----3---3-------3b5==|

|------------------------0-----------------|
|------------------------0-----------------|
|------2-2---2-2---2-(2)---2p0-3p2p0-------|
|------2-2---2-2---2-(2)-------------------|
|------0-0---0-0---0-(0)-------------------|
|-(3)r-----3-----3-------------------3b5===|


|-------------------------------------|----------------------------------|
|-------------------------------------|-------------------------8s7-5-7--|
|------2-2---2-2---2-2---2------------|------2-2---2-2---2-(2)-----------|
|------2-2---2-2---2-2---2------------|------2-2---2-2---2-(2)--8s7-5-7--|
|------0-0---0-0---0-0---0-0-3p2------|------0-0---0-0---0-(0)--6s5-3-5--|
|-(3)r-----3-----3-----3---------3b5==|=(3)r-----3-----3-----------------|


|---------------------------|-----------------------------|
|-(7)-5---5-5-5---7-8-7-5-7-|-(7)-5-(5)-----------8s7-5-7-|
|---------------------------|------------------\7---------|
|-(7)-5---5-5-5---7-8-7-5-7-|-(7)-5-(5)-5------\7-8s7-5-7-|
|-(5)-3-3-3-3-3-5---6-5-3-5-|-(5)-3-(3)-----------6s5-3-5-|
|---------------------------|-------------x/--------------|


|-------------------------------|------------------------------------------|
|-(7)-5-(5)-5-5-5---7-8-7-----7-|---------------9--------------------------|
|-------------------------------|---------------------------11s12----------|
|-(7)-5-(5)-5-5-5---7-8-7-----7-|---7-----8---9------10---11------12-12----|
|-(5)-3-(3)-3-3-3-5---6-5p0-3p0-|-5---5s6---7------8----9------------------|
|-------------------------------|-------------------------------------3b5==|

|-------------------------------|---------------------------------------|
|-------------------------------|-----7--------------10-----------------|
|-------------------------------|---------------------------------------|
|-------------------------------|---7-----8---9---10------11-------12-12|
|-------------------------------|-5-----6---7---8-------9-------10------|
|-------------------------------|----------------------------------3b5==|


|---------------------------------------|------------------------------|
|---------------------------------------|------------------------------|
|------2-2---2-2---2-2---2--------------|------2-2---2-2---2-(2)-------|
|------2-2---2-2---2-2---2--------------|------2-2---2-2---2-(2)-------|
|------0-0---0-0---0-0---0---0-3p2------|------0-0---0-0---0-(0)-------|
|-(3)r-----3-----3-----3---3-------3b5==|=(3)r-----3-----3--------12\--|


|------------------|-----------------------|
|-^5--8---^7-(7)-7S|=^10--13---^12-(12)----|
|-^5------^7-(7)-7S|=^10-------^12-(12)-12S|
|-^5------^7-(7)-7S|=^10-------^12-(12)----|
|------------------|-----------------------|
|------------------|-----------------------|


|-------------------------|-----------------------|
|-^15--18---^17-(17)-17---|-12s13s14-(14)---12-12-|
|-^15-------^17-(17)------|-12s13s14-(14)---13-13-|
|-^15-------^17-(17)------|-12s13s14-(14)---14-14-|
|-------------------------|-----------------------|
|-------------------------|-----------------------|

|--------------------------------------------------||
|-12h=14--14-14-(14)-12-12-12-12h=14--14-14-(14)---||
|-13h=14--14-14-(14)-13-13-13-13h=14--14-14-(14)---||
|-14-(14)-14-14-(14)-14-14-14-14-(14)-14-14-(14)---||
|--------------------------------------------------||
|--------------------------------------------------||

 Chorus

|--------------------|----------------------------|
|-4-------7-7----5-5-|-5--------------------------|
|-4-------6-6----4-4-|-4--------------------------|
|-4----/8-8-8----6-6-|-6--------------------------|
|-2------------------|------2-2-2-2-2-2-2-2-2-2---|
|--------------------|----------------------------|

|-------------------|-----------------------------------------------|
|-4-------7-7-------|-----7-(7)-------------------------------------|
|-4-------6-6-----7-|-(7)-7-(7)-------------------------------------|
|-4----/8-8-8-----7-|-(7)-7-(7)-------------------------------------|
|-2---------------5-|-(5)-5-(5)-2h6h19-14p9p6p2h7h11-14p11p7-11p7p2-|
|-------------------|-----------------------------------------------|


|------------------------|--------------------------|---------------------|
|-4---------7----------5-|-5------------------------|-4----8--9--(9)-10---|
|-4---------6----------4-|-4------------------------|-4----7--9--(9)--9---|
|-4------/8-8----(8)s6-6-|-6------------------------|-4----6--9--(9)-11---|
|-2----2-----------------|------2-2-2-2-2-2-2-2-2-2-|-2-------------------|
|------------------------|--------------------------|---------------------|
                                    
|--------------------------||---------------------|-----------------------|
|-----12-(12)-4-(4)-------o||--4----8--9--(9)-10--|-11-----------4-(4)----|
|-11--11-(11)-4-(4)--------||--4----7--9--(9)--9--|-11--11-(11)\-4-(4)----|
|-11--11-(11)-4-(4)--------||--4----6--9--(9)-11--|-11--11-(11)\-4-(4)----|
|-------------2-(2)-------o||--2------------------|--------------2-(2)----|
|-----------------------0--||---------------------|-----------------------|


                      Bridge
 
|-------------------||---------------------------|
|-(4)---------------||---------------------------|
|-(4)---------------||---------------------------|
|-(4)---------------||---------------------------|
|-(2)-------5s4---4-||-(4)-2-(2)-2---x-x-5-4---4-|
|-----------3s2-0-2-||-(2)-0-(0)-0---x-x-3-2-0-2-|


|--------------------------------|
|--------------------------------|
|--------------------------------|
|--------------------------------|
|-(4)-2-(2)-2---x-x-x-x-5s4---4--|
|-(2)-0-(0)-0---x-x-x-x-3s2-0-2--|



|-------------------------------------|-----------------------------|
|-------------------------------------|-----------------------------|
|-------------------------------------|-----------------------------|
|-------------------------------------|-----------------------------|
|-(4)--2--(2)-2-----x---x-5---4-----4-|--(4)--2-(2)---------5s4---4-|
|-(2)--0--(0)-0-----x---x-3---2---0-2-|--(2)--0-(0)-0--(0)--3s2-0-2-|


|-------------------------------------|-----------------------------|
|-------------------------------------|-----------------------------|
|-------------------------------------|-----------------------------|
|-------------------------------------|-----------------------------|
|-----<3>---------(<3>)-----(<3>)-----|-(<3>)-----------------------|
|-------------------------------------|-----------------------------|


|---------------------------------|---------------x-x-x-x-x---------|
|---------------------------------|---------------x-x-x-x-x---------|
|---------------------------------|---------------------------------|
|---------------------------------|---------------------------------|
|--(4)--------2-x-x-x-x--5--4---4-|--(4)--2-(2)-2-----------5s4---4-|
|--(2)--0-(0)-0-x-x-x-x--3--2-0-2-|--(2)--0-(0)-0-----------3s2-0-2-|


|---------------------------------|---------------------------------|
|---------------------------------|---------------------------------|
|-----------------------<5>-------|-(<5>)---------------------------|
|---------------------------------|---------------------------------|
|-(<3>)---------------------------|---------------------------------|
|---------------------------------|---------------------------------|


|---------------------------------|-----------/x-x\------------------||
|---------------------------------|----------------------------------||
|---------------------------------|----------------------------------||
|---------------------------------|--------------------------5s4---4-||
|--(4)--2-(2)-2---2-2-2-5-5-4---4-|-(4)-2-(2)-------0----(0)-3s2-0-2-||
|--(2)--0-(0)-0---------3-3-2-0-2-|-(2)-0-(0)------------------------||


|---------------------------------|----------------------------------||
|---------------------------------|----------------------------------||
|-(<5>)---------------------------|----------------------------------||
|---------------------------------|----------------------------------||
|---------------------------------|----------------------------------||
|---------------------------------|----------------------------------||


 Guitar Solo
 
|------------------------------------|
|------------------------------------|
|--------7---7b8-------7---[7]-------|
|----7h9---9-----9-7-9---9-----9-7-9-|
|-/9---------------------------------|
|------------------------------------|

|------------------------------------|
|------------------------------------|
|------------------------------------|
|--4-2---2-2-----------5----4------4-|
|--2-0---0-0-0---0-0-0-3----2----0-2-|
|------------------------------------|



                                
    

|--------------------------7--------------------------------|
|----------------------------10p7-7b9==(7)r(7)--12p7h10h12--|
|--7----9-7h9b11==(9)-(9)r----------------------------------|
|-----9-----------------------------------------------------|
|-----------------------------------------------------------|
|-----------------------------------------------------------|

|-----------------------------------------------------------|
|-----------------------------------------------------------|
|---------------------------------------0-------------------|
|-(4)---2--------------2------2-2-2-----0---5s4-------4-----|
|-(2)---0--------------0------0-0-0---------3s2--0----2-----|
|-----------------------------------------------------------|
                                              end Rhy Fig 2-|


  T T  T T  T T  T T  T  T  T  T  S  T  T  T T  T T  T T  S
|----------------------------------------------------------------------
|-14p12p7h12-14-12p-7p-12p7-12-7p-12-7p-12-7p-14-12p-14-12p-14-12p-14-12p7
|----------------------------------------------------------------------
|----------------------------------------------------------------------
|----------------------------------------------------------------------
|----------------------------------------------------------------------


-----------------------------------------------------------------------
-12-7p-12p-7/14p-------------------------------------------------------
-----------------------------------------------------------------------
-----------------------------------------------------------------------
-----------------------------------------------------------------------
-----------------------------------------------------------------------




        T       T     T              T                ~~~
|-------------------------------------------------------------------------|
|--7-------------------------------------------------------------------/12|
|-----/16p9---/16p7-/16p9b10==(9)r-/16p9b10r(9)p7b9==(7)-------(7)r\------|
|-------------------------------------------------------------------------|
|-------------------------------------------------------------------------|
|-------------------------------------------------------------------------|



               T               T         T                   T

|---10-12b14==(12)---20rp12---(12)b14==17rp10h12b14==20rp12-(12)b14==17rp==|
|--------------------------------------------------------------------------|
|--------------------------------------------------------------------------|
|--------------------------------------------------------------------------|
|--------------------------------------------------------------------------|
|--------------------------------------------------------------------------|


|-12s=19b21==(19)-(19)r==(19)---14h17p==14-(14)--(14)\---|
|--------------------------------------------------------|
|--------------------------------------------------------|
|--------------------------------------------------------|
|--------------------------------------------------------|
|--------------------------------------------------------|



                                                                 \1/
        T                  T         T
        |-3--|  |-------------9-------------|
  E.    T  T T  S S   S    S S    S  S    S S E      +T  T S +S  S    +T  T S
|------14p-12p-7h-10p-7---------------------------------------------------|
|-------------------h10-12p-7h-10-12p-10-7p-------------------------------|
|---------------------------------------------9b10r==(9)p7-9-(9)-9b10r(9)p7
|-------------------------------------------------------------------------9
|-------------------------------------------------------------------------|
|-------------------------------------------------------------------------|



|-----------------------------------------|------------------9-(9)-10----|
|-------------------------------------4s==|=6-12p4h7-13p=5h8-6-(6)--7----|
|--7b8==(7)r------------------------------|------------------------------|
|------------9---7------------------------|------------------------------|
|--------------9---9-8-7-5--5b7-----------|------------------------------|
|-----------------------------------------|------------------------------|


|-----------------------------------------|------------------------------|
|-----------------------------------------|------------------6-(6)--7----|
|-----------------------------------------|------------------------------|
|-(4)--------2---------2---(2)------------|------------------6-(6)--7----|
|-(2)--------0---------0---(0)--0-0-0-2p0-|-2p===0-3-(3)p0-4-----------0-|
|-----------------------------------------|------------------------------|


      T      T                          T      T
|-------------------10-(10)-11----|--------------------11-(11)-12----|
|-/7-13p5h8-14p=6h9--7--(7)--8----|-/8-14p6h9-15p=7h10--8--(8)--9-7s=|
|---------------------------------|----------------------------------|
|---------------------------------|----------------------------------|
|---------------------------------|----------------------------------|
|---------------------------------|----------------------------------|

|---------------------------------|----------------------------------|
|--------------------7--(7)--8----|---------------------8--(8)--9----|
|---------------------------------|----------------------------------|
|--------------------7--(7)--8----|---------------------8--(8)--9----|
|--3p===0-4-(4)p0-5-------------0-|--4p===0-5-(5)p0--6------------0--|
|---------------------------------|----------------------------------|


      T       T
|---------------------12-(12)-13---|
|-10-15p7h10-16p=8h11--9--(9)-10-8s|
|----------------------------------|
|----------------------------------|
|----------------------------------|
|----------------------------------|

|----------------------------------|
|----------------------9--(9)-10---|
|----------------------------------|
|----------------------9--(9)-10---|
|--5p===0--6-(6)p0--7------------0-|
|----------------------------------|


      T       T
|---------------------13-(13)-14p12-15p=12--16p12----|
|-10-16p8h11-17p=9h12-10-(10)---------------------14-|
|----------------------------------------------------|
|----------------------------------------------------|
|----------------------------------------------------|
|----------------------------------------------------|

|----------------------------------------------------|
|---------------------10-(10)-11----12-(12)-13-------|
|--------------------------------------------------2-|
|---------------------10-(10)-11----12-(12)-13-----2-|
|--6p===0--7-(7)p0--8------------------------------0-|
|----------------------------------------------------|

|-17-----------------|-(17)---------------------------------------(17)\-||
|--------------------|--------------------------------------------------||
|--------------------|--------------------------------------------------||
|--------------------|--------------------------------------------------||
|--------------------|--------------------------------------------------||
|--------------------|--------------------------------------------------||
[ Tab from: http://www.guitartabs.cc/tabs/v/van_halen/me_wise_magic_tab_ver_3.html ]
|--------------------|--------------------------------------------------||
|--------------12-12-|--12---14-14-(14)-12-12-12-12h=14--14-14-14-------||
|--2-------(2)-13-13-|--13---14-14-(14)-13-13-13-13h=14--14-14-14-------||
|--2-------(2)-14-14-|--14---14-14-(14)-14-14-14-14-(14)-14-14-14-------||
|--0-------(0)-------|--------------------------------------------------||
|--------------------|--------------------------------------------------||


 Guitar Solo
|--------------------------------|------------------------------|
|--------------------------------|------------------------------|
|------------[4]-----[4]---[4]---|-[4]-[4]-[4]-[4]-[4]-[4]-(4)--|
|--------------------------------|------------------------------|
|--------------------------------|------------------------------|
|--------------------------------|------------------------------|

|--------------------------------|------------------------------|
|-5------------------------------|--4---------------7-----------|
|-4------------------------------|--4---------------6-----------|
|-6------------------------------|--4---------------8-----------|
|------2-2-2--2--2-2--2--2--2--2-|--2---------------------------|
|--------------------------------|------------------------------|



|----------------------------------------------|
|---------------------------------------22b24==|
|------------[2]----[4]-----(4)\---------------|
|----[4]-[4]-----------------------------------|
|----------------------------------------------|
|----------------------------------------------|

|----------------------------------------------|
|-------------------------9------10p9----4-----|
|-7------------------9-------9----9---9--4-----|
|-7-----------2h6h9-----9--------11p9----4-----|
|-5--------------------------------------2-----|
|----------------------------------------------|

|------------------------------------------------------------|
|-(22)r-22b24-22b24r(22)p19-22b24====(22)-(22)r(22)-22b24====|
|------------------------------------------------------------|
|------------------------------------------------------------|
|------------------------------------------------------------|
|------------------------------------------------------------|


|--------------------------------------------------------------------------|
|-(22)-(22)r(22)p19-------19-----------------------------------------------|
|-------------------21b22----21b23r(21)p==19-21b23r(21)p==19-----------8s==|
|------------------------------------------------------------21---(21)\----|
|--------------------------------------------------------------------------|
|--------------------------------------------------------------------------|

|---------------------------------------------------------|
|---------------------------------------------------------|
|-16---[16]b19=====(16)-(16)r(16)b19==(16)r(16)-[16]b19r==|
|---------------------------------------------------------|
|---------------------------------------------------------|
|---------------------------------------------------------|

|-------------------------------------------------------------------------=|
|--------------================--------------------------------19---22b23--|
|-(16)b19==(16)r(16)-(16)b19r(16)-----(16)b19=====(16)--(16)r\------/20----|
|--------------------------------------------------------------------------|
|--------------------------------------------------------------------------|
|--------------------------------------------------------------------------|

|-------------------------------------------------------------------------|
|-22b24r(22)-(22)b24r(22)b26====(22)-(22)r(22)b24==(22)r(22)-----(22)b26==|
|-------------------------------------------------------------------------|
|-------------------------------------------------------------------------|
|-------------------------------------------------------------------------|
|-------------------------------------------------------------------------|

|-----------------------------------------------------|
|-(22)r(22)-(22)-------------(22)b24r(22)b26====(22)--|
|-----------------------------------------------------|
|-----------------------------------------------------|
|-----------------------------------------------------|
|-----------------------------------------------------|

|----------------------------------------------------------------------|
|-(22)r(22)b24==(22)r(22)-(22)b27r(22)b24==(22)-(22)r(22)p19-19--------|
|---------------------------------------------------------------21b23==|
|----------------------------------------------------------------------|
|----------------------------------------------------------------------|
|----------------------------------------------------------------------|

|--------------------------------------------------------------------------|
|-----------------19------------------------19----------------------19-----|
|-(21)r(21)p19-21----21b23==(21)r(21)p19--21b23r-(21)p19-2--19--(19)-(19)\-|
|----------------------------------------21--------------------------------|
|--------------------------------------------------------------------------|
|--------------------------------------------------------------------------|

|------------------------------|-------------------------------------------|
|------------------------------|-------------------------------------------|
|-[4]--------[4]-[4]-[4]-[4]---|-(4)-[4]-[4]---[4]-(4)---[4]---(4)-[4]-----|
|------------------------------|-------------------------------------------|
|------------------------------|-------------------------------------------|
|------------------------------|-------------------------------------------|

|-----------------------------------------|
|-----------------------------------------|
|-[4]-[4]-(4)-[4]------[4]--[4]-(4)-[4]---|
|-----------------------------------------|
|-----------------------------------------|
|-----------------------------------------|

|-------------------------------------------------------------|
|-------------------------------------------------------------|
|-[4]---[4]-(4)-[4]--------[4]----[4]---(4)-----[4]--14b16====|
|-------------------------------------------------------------|
|-------------------------------------------------------------|
|-------------------------------------------------------------|

|----------------------------------|----------------------------------=---|
|--------10/---|-/22b24==(22)-(22)r-7S==22b24==(22)r--------10s====22b24==|
|-(14)------------(14)r\-----------|--------------------------------------|
|----------------------------------|--------------------------------------|
|----------------------------------|----------------------------------=---|
|----------------------------------|--------------------------------------|

   T     T  T           T  T  T     T   T      T            T
|---=----19--------------19---------------------19-------------------19--|
|-(22)-------22b24---------22b24r(22)-19-19h22----22p19----19h22p19-----|
|-----21pb23r(21)----------21pb22---------------------------------21---|
|------------------------------------------------------------------------|
|------------------------------------------------------------------------|
|------------------------------------------------------------------------|

|-----------------19----------------19--------------22-22-22-22-22-21h22--|
|-22-19-19h22p19----22p19-19-19h22-22p19-19-22p==19-19h22p19------19-22p19|
|---------------------------------------------------------------20-18-----|
|-------------------------------------------------------------------------|
|-------------------------------------------------------------------------|
|-------------------------------------------------------------------------|
repeat 3 times

|--------------------------------------------------------------=--|
|-15p12p7h10-17p12-15p12p===7h10-17p12-15p12p7h10-17p12-15p12p7h==10
|-----------------------------------------------------------------|
|-----------------------------------------------------------------|
|-----------------------------------------------------------------|
|-----------------------------------------------------------------|

|----------------------------------------------------------8-----------|
|--4---------------------7------------7--------------------7-------7---|
|--4------------------6-----------------7--------------------7-------(7)
|--4---------------------8-----------------7--------------------7------
|--2-------------------------------------------------------------------|
|----------------------------------------------------------------------|
   

|--------------------------------------------------------|
|------------------------------------------------12p7h10-|
|-9b11r(9)p7h9---(9)--(9)-(9)p7h=9b11==(9)r--(9)---------|
|--------------------------------------------------------|
|--------------------------------------------------------|
|--------------------------------------------------------|

|--------------------------------------------------------|
|-9---------------9---(9)-10----11----------(11)---------|
|-9---------------9---(9)--9----11----------(11)--9s7----|
|-9---------------9---(9)-11----11----------(11)--9s7----|
|--------------------------------------------------------|
|--------------------------------------------------------|


   T     T         T  T           T   
|--------------------17p=7h===10-17/p10-(10)---------------------|
|-17p12-15p7s8h12-15---------------------------------------------|
|----------------------------------------------[9]b10r====(9)-7--|
|----------------------------------------------------------------|
|----------------------------------------------------------------|
|----------------------------------------------------------------|

|----------------------------------------------------------------|
|--7------------7----(7)---8--------------9--9-(9)----10---------|
|--7------------7----(7)---7--------------9--9-(9)-----9---------|
|--7------------7----(7)---9--------------9--9-(9)----11---------|
|----------------------------------------------------------------|
|----------------------------------------------------------------|

|----------------------------------------|---------------|-----------||
|----------------------------------------|------[5]------|-(5)--(5)--||
|-[9]-[9]pb10r(9)--7---9b11-7------------|---------------|-----------||
|-----------------------------9-9-(9)----|-(9)-----------|-----------||
|----------------------------------------|---------------|-----------||
|----------------------------------------|---------------|-----------||

|----------------------------------------|---------------|-----------||
|-11--------------11-(11)\----4-4-(4)----|---------------|-----------||
|-11--------------11-(11)\----4-4-(4)----|---------------|-----------||
|-11--------------11-(11)\----4-4-(4)----|---------------|-----------||
|-----------------------------2-2-(2)----|-(2)-----------|-(2)-------||
|----------------------------------------|---------------|-----------||


|-----------------------------|----------------------------------|
|-(5)-------------------------|-(5)-------------------(5)--------|
|-----------------------------|----------------------------------|
|-----------------------------|----------------------------------|
|-----------------------------|----------------------------------|
|-----------------------------|----------------------------------|

|-----------------------------|----------------------------------|
|-------2-(2)-----------------|-------------2--------------------|
|-------------4---------------|-------4-(4)---4-(4)--------------|
|-----4-----------------------|-----4----------------------------|
|-(2)-------------------------|--2-------------------------------|
|----------------3--5-(5)-3h5-|---------------------3-(3)-5--3h5-|

|----------------------------------|
|-(5)-----(5)-----------(5)--------|
|----------------------------------|
|----------------------------------|
|----------------------------------|
|----------------------------------|

|---------------2-(2)--------------|
|-------------2--------------------|
|-------4-(4)----------------------|
|-----4----------------------------|
|--2-------------------------------|
|---------------------3-(3)-5--3h5-|


              T            T             T
|--------------------------------------------------|
|-------------7(12)---(7)-10(15)-(10)--------------|
|----------------------------------------9(14)S====|
|--------------------------------------------------|
|--------------------------------------------------|
|--------------------------------------------------|

|--------------------------------------------------|
|-----------2--------------------------------------|
|-----4-(4)---------4-(4)--------------------------|
|---4----------------------------------------------|
|-2------------------------------------------------|
|--------------------------3------(3)-5--------3h5-|

|-----------------------------------------------------|--------------------|
|-----------------------------------------------------|---------------=----|
|-7(12)--(7)-(7)-(7)(7)-(7)----(7)--|-(7)-(7-(7--(7)-(7)--(7)----(7)--(7)--|
|-----------------------------------------------------|--------------------|
|-----------------------------------------------------|-----------------=--|
|-----------------------------------------------------|--------------------|

|-----------------2-(2)-------------------------------|------------------|
|---------------2-------------------------------------|------------------|
|---------4-(4)--------------------------------|------------4-(4)---4-(4)|
|-------4---------------------------------------------|------4-----------|
|-2---------------------------------------------------|--2---------===---|
|-------------------3--(3)-5--------------3h5-|---3-----(3)-5--------3h5-|

|--------------------------------------------|
|--------------------------------------------|
|-(7)------------(7)----(7)---(7)----(7)(7)--|
|--------------------------------------------|
|--------------------------------------------|
|--------------------------------------------|

|--------------------------------------------|
|--------------2-----------------------------|
|--------4-(4)--------4-(4)------------------|
|------4-------------------------------------|
|--2-----------------------------------------|
|---------------------------3-(3)-5---3h=5---|

|------------------------------------------|
|------------------------------------------|
|-(7)-----------(7)-(7)--(7)---(7)----(7)--|
|------------------------------------------|
|------------------------------------------|
|------------------------------------------|

|--------------------2---(2)---------------|
|-------------2----------------------------|
|-------4-(4)------------------------------|
|-----4------------------------------------|
|--2---------------------------------------|
|----------------------------3-(3)-5---3h5-|

|---------------------------------------------------------------------|
|--------------------------------------7(12)-------(7)-------10(15)---|
|-(7)----------------(7)----------------------------------------------|
|---------------------------------------------------------------------|
|---------------------------------------------------------------------|
|---------------------------------------------------------------------|
 T     T     T         T       T           T         T      T

|---------------------------------------------------------------------|
|------------------------2(14)----------------------------------------|
|--------------4(16)-------------4(16)--------------------------------|
|--------4(16)--------------------------------------------------------|
|--2(14)--------------------------------------------------------------|
|--------------------------------------------3(15)-----5(17)--3(15)h5-|
                                     
|-------------------------------------------------------------------|
|-(10)----------------------------(10)------------------------------|
|--------------------------------------9(14)pb11r(9)-------(9)b11===|
|-------------------------------------------------------------------|
|-------------------------------------------------------------------|
|-------------------------------------------------------------------|

|-------------------------------------------------------------------|
|-------------------------------------------------------------------|
|-(9)r---------------------9(14)-------(9)-7(12)-(7)-------(7)S=====|
|-------------------------------------------------------------------|
|-------------------------------------------------------------------|
|-------------------------------------------------------------------|

|--------------------------------------------------------------|
|--------------------------------------------------------------|
|-4(9)--------------2(7)-------------------4(9)-------(4)------|
|--------------------------------------------------------------|
|--------------------------------------------------------------|
|--------------------------------------------------------------|

|---------------------------------------------------------------|
|---------------------------------------------------------------|
|-(4)----(4)----------(4)---------------------(4)---------------|
|---------------------------------------------------------------|
|---------------------------------------------------------------|
|---------------------------------------------------------------|



  T                                 T     T
|-----------------------------------7(19)---------------------|
|-7(19)-------------------------(7)---------------------------|
|-----------------------------------------9(21)---------------|
|-------------------------------------------------------------|
|-------------------------------------------------------------|
|-------------------------------------------------------------|

  T                 T           T               T            T
|-----------------------------------------------7(19)----------------------|
|-------------------------------7(19)-(7)-------------------10(22)---------|
|-7(19)-------------9(21)--------------------------------------------------|
|--------------------------------------------------------------------------|
|--------------------------------------------------------------------------|
|--------------------------------------------------------------------------|
   T                    T

|-12(24)-10(22)-------------------12(24)------------------7---------|
|----------------------------------------------7h10-----------------|
|-------------------------------------------------------------------|
|-------------------------------------------------------------------|
|-------------------------------------------------------------------|
|-------------------------------------------------------------------|

         T            T                      T         T      T
|-(7)----------------------------------------7(12)-(7)----------------|
|--------7(12)-------10(15)-------------(10)-----------7(12)-10(15)---|
|---------------------------------------------------------------------|
|---------------------------------------------------------------------|
|---------------------------------------------------------------------|
|---------------------------------------------------------------------|
Comments