Van Halen - Jump Chords & Tabs

 

Jump Chords & Tabs

Van Halen Chords & Tabs

Version: 5 Type: Tab 0 ratings
1 star 2 stars 3 stars 4 stars 5 stars
comments

Jump Tab

Date: December 2003
Jump recorded by Van Halen
(From the album 1984)

Intro (Synthesiser transcribed to guitar)

e-------------------------------------------------------------------------
b-------15----17----13-----13----15---15---17-----------------------------
g-------16----17----14-----14----16---16---17-----------------------------
d-------17----17----15-----15----17---17---17-----------------------------
a-------------------------------------------------------------------------
e-------------------------------------------------------------------------

e-------------------------------------------------------------------------
b----13----13-------------8---8---8---------------------------------------
g----14----14-------------7---7---7---------------------------------------
d----15----15-------------9---9---9---------------------------------------
a-------------------------------------------------------------------------
e-------------------------------------------------------------------------

Repeat this several times until

e-------------------------------------------------------------------------
b-------------------------------------------------------------------------
g-------------------------------------------------------------------------
d-------------------------------------------------------------------------
a-------------------------------------------------------------------------
e--------7----5--5----7----5--5----7-----5vvvvv---------------------------

That part is the "can't see me here standing here,I got my back against the record machine" 

Then play
e-------------------------------------------------------------------------
b--------1---5-3---1---5-3------1--10-8-----------------------------------
g------2---------2------------2-------------------------------------------
d---3----------3------------3---------------------------------------------
a-------------------------------------------------------------------------
e-------------------------------------------------------------------------

guitar solo (2:17)

e-----18vvvvv---6-------6---------------6---------------------------------
b----x---------x---9bvv---6-----9p6----------------6----------------------
g--x----------------------------------9----9p8p6-8---6vvv-------6---6-----
d-------------------------------------------------------------x-----------
a------------------------------------------------------------x------------
e-------------------------------------------------------------------------

e---------------------------------------------------h6h9-13p9p8p6h9h13p9p8
b-------------------------------------------------------------------------
g---6b--6b----------------------------------------------------------------
d-----------8-----6br-8p6---6---------------------------------------------
a-------------8-----------8---8--8-7-6\4-6--4vvv--------------------------
e-------------------------------------------------------------------------

e-p6h9-13p9p8p6-----------------------------------------------------------
b---------------h9h13-6---------------------------------------------------
g-----------------------h9--13p6h10------------------------------8b9r8rp6-
d-----------------------------------13p6h10-------------------------------
a-------------------------------------------13p6vv6b8vr6\/8---------------
e-------------------------------------------------------------------------
[ Tab from: http://www.guitartabs.cc/tabs/v/van_halen/jump_tab_ver_5.html ]
e---------------6--8--11-11h13v--9h11vvv/---------------------------------
b--------------6----------------------------------------------------------
g-8vvvvvv\----6-----------------------------------------------------------
d------------8------------------------------------------15h16h18----------
a----------------------------------------------15h16h18----------15h16h18-
e-------------------------------------------------------------------------

e------------------------------15h16p15vvvvvvvvvvvvv----------------------
b--------------------15h16h18---------------------------------------------
g-----------15h16h18------------------------------------------------------
d--15h16h18---------------------------------------------------------------
a-------------------------------------------------------------------------
e-------------------------------------------------------------------------

.....synthesiser solo
Outro
PM----------------------------------------------------------------------
e-----------------------------------------------------------------------
b-----------------------------------------------------------------------
g-----------------------------------------------------------------------
d-----------------------------------------------------------------------
a------3-3-3--3-3-3--3-3-----3-3--3-3--3--------------------------------
e-----------------------------------------------------------------------

PM----------------------------------------------------------------------
e-----------------------------------------------------------------------
b-----------------------------------------------------------------------
g-----------------------------------------------------------------------
d-----------------------------------------------------------------------
a---3-3-3--3-3-3--3-3----3-3--3-3--3------------------------------------
e--------------------------------------1-1--3---3--3-3-3----------------

PM----------------------------------------------------------------------
e-----------------------------------------------------------------------
b-----------------------------------------------------------------------
g-5-5--5-5-5--5-5-5--5-5-5--5-5--5-5--5---------------------------------
d-----------------------------------------------------------------------
a-----------------------------------------------------------------------
e-----------------------------------------------------------------------

PM-----------------------------               ------
e-----------------------------------------------------------------------
b--------------------------------8------8--8----------------------------
g---5--5--5--5-5-5--5-5--5---5---5------5--5----------------------------
d----------------------------------------------5-5-5--------------------
a-----------------------------------------------------------------------
e-----------------------------------------------------------------------

PM----------------------------------------------------------------------
e-----------------------------------------------------------------------
b-----------------------------------------------------------------------
g----5--5-5-4--4-5-2--2-2-5-4-4-5---------------------------------------
d---------------------------------5-------------------------------------
a-3---------------------------------------------------------------------
e-----------------------------------------------------------------------

PM--------------------------
e-----------------------------------------------------------------------
b------------------------------8-----8---8--8-8-8-----------------------
g---------5-5-5--5-5--5----5---5-----5---5--5-5-5-----------------------
d---5--5----------------------------------------------------------------
a-----------------------------------------------------------------------
e-----------------------------------------------------------------------
Comments