Van Halen - Jugement Day Chords & Tabs

 

Jugement Day Chords & Tabs

Van Halen Chords & Tabs

Version: 1 Type: Tab 0 ratings
1 star 2 stars 3 stars 4 stars 5 stars
comments

Jugement Day Tab

   
                        Judgement Day - Van Halen
-------------------------------------------------------------------------------
Tabbed by: 5150_Fan
Email:

Tuning:EADGBE

This song is played with a heavy metal setting

e|----------------------0---------------------------------------------------|
B|-----------3------------------3-------------------------------------------|
G|--------0---------2--------0----------------------------------------------|
D|------4--------5--------4-------------------------------------------------|
A|-------------------------------------whammy bar---------------------------|
E|---------------------------------00000000000000000000000000000000---------|
                                     ^
                                     For this part dive down on your
                                     whammy bar really hard. Don't dive on
                                     it unless you want to wreck your
                                     bridge, eddie gose threw 1 every 3
                                     concerts because he's so hard on it.
                                     For this part I would use a Floyd
                                     Rose Trem Bridge so it doesn't go
                                     out of tune.
   A G A G A
e|------------------------------0-------------------------------------------|
B|---------------------3---------------3------------------------------------|
G|-2---2---2--------0--------2-------0--------------------------------------|
D|-2---2---2------4--------5-------4----------------------------------------|
A|-0---0---0--------------------------------whammy bar----------------------|
E|---3---3------------------------------000000000000000000000000000---------|


              have 5 on g string all ready bent up
              then let down while twisting your
              pick to make a screaching noise.
   A G A G
e|--------------------------------------0--------3--------------------------|
B|-----------------------------3---------------3----------------------------|
G|-2---2-------5------------0---------2------2------------------------------|
D|-2---2------------------4--------5----------------------------------------|
A|-0---0--------------------------------------------------------------------|
E|---3---3------------------------------------------------------------------|

       strum down then up
e|---3-3--2-2--3-3--2-------------------------------------------------------|
B|---3-3--3-3--3-3--3-------------------------------------------------------|
G|---2-2--2-2--2-2--2-------------------------------------------------------|
D|--------------------------------------------------------------------------|
A|----------------------------whammy bar------------------------------------|
E|-----------------------00000000000000000000000000000----------------------|

[ Tab from: http://www.guitartabs.cc/tabs/v/van_halen/jugement_day_tab.html ]
e|--------------------------------------------------------------------------|
B|--------------------------------------------------------------------------|
G|---2-h-4-p-2-s-4--5--5--------------2-4-2------7-6--2-h-4--2-4-2----------|
D|---2-h-4-p-2-s-4--5--5--------------2-4-2-4----7-6--2-h-4--2-4-2-4--------|
A|------------------------------------------4----------------------4--------|
E|--------------------------22222222----------222---------------------22222-|
                           pick 2 up and down between each riff that's
                           played.
                                  Main Riff  repeat this part 4X
e|--------------------------------------------------------------------------|
B|--------------------------------------------------------------------------|
G|--2-4-2----------------------2--4-2------7--6--2--h--4---2--4-2-----------|
D|--2-4-2-4--x-x-x-4-----------2--4-2--4---7--6--2--h--4---2--4-2--4--------|
A|--------4--x-x-x-4-------------------4---------------------------4--------|
E|--------------------------------------------------------------------------|

        repeat 4x
e|--2-s-4-4-4-4-4-4-2--------then repeat the main riff----------------------|
B|--2-s-4-4-4-4-4-4-2-------------------------------------------------------|
G|--2-s-4-4-4-4-4-4-2-------------------------------------------------------|
D|--2-s-4-4-4-4-4-4-2-------------------------------------------------------|
A|--------------------------------------------------------------------------|
E|--------------------------------------------------------------------------|

    Power Chords
e|-----------------------------------------------then repeat main riff-------|
B|---------------------------------------------------------------------------|
G|--6-7--9-11-----------6-7--9-11--------------------------------------------|
D|--6-7--9-11---7-------6-7--9-11---7--s--11---------------------------------|
A|--4-5--7-9----7--2--- 4-5--7--9---7--s--11---------------------------------|
E|--------------5--0----------------5--s--9----------------------------------|

              Then there's some funky 2 hand tapping and i'm sorry but i don't know it 
when i do i'll post it.

  Solo
e|-------2----2-------------------------------------------------------------|
B|-------2---5----5--2-------------------------------screach here on 4------|
G|----4b---------------4b-4-4b-4--2-2--4b-4--2--2--4----4scr----------------|
D|--------------------------------------------------------------------------|
A|--------------------------------------------------------------------------|
E|--------------------------------------------------------------------------|


e|-----2--2--2--2-2-----2---------------------------------------------------|
B|-----2--2--2--2-2---5----5-2--------use whammy bar here-------------------|
G|--4b--------------------------4b----2--4-4--2-2--4b-4-2-2-1-1-2-1-2-------|
D|--------------------------------------------------------------------------|
A|--------------------------------------------------------------------------|
E|--------------------------------------------------------------------------|


 Then it all reapets it's self again, there you have it JUGEMENT DAY!!!
Comments