Van Halen - Humans Being Chords & Tabs

 

Humans Being Chords & Tabs

Van Halen Chords & Tabs

Version: 5 Type: Tab 0 ratings
1 star 2 stars 3 stars 4 stars 5 stars
comments

Humans Being Tab

This is just what I figured out of that solo that is played after each chorus. Remember, 
probably isn't exactly correct.

Tune guitar down 1/2 step.


    AH___________________       PM_____             AH_______________
e     --------------------------------7-10^7^10^7--------------------------|
B     ------------------------------8-------------8---10---(10)<12>10------|
G     -----------------7---4^5^4--7----------------------------------------|
D     ---------2---5-------------------------------------------------------|
A     -3---5---------------------------------------------------------------|
E     ---------------------------------------------------------------------|

e     -----------------------|
B     -----------------------|
G     -19<23---<-<-<-19------|
D     -----------------------|
A     -----------------------|
E     -----------------------|
[ Tab from: http://www.guitartabs.cc/tabs/v/van_halen/humans_being_tab_ver_5.html ]
           t       t       t       t       t       t
e     -------------------------------------------------|
B     -8^13^17-8^13^17-8^13^17-8^13^17-8^13^17-8^13^17-|
G     -------------------------------------------------|
D     -------------------------------------------------|
A     -------------------------------------------------|
E     -------------------------------------------------|

           t       t       t       t       t       t
e     -------------------------------------------------|
B     -------------------------------------------------|
G     -7^12^16-7^12^16-7^12^16-7^12^16-7^12^16-7^12^16-|
D     -------------------------------------------------|
A     -------------------------------------------------|
E     -------------------------------------------------|

e     -3/15-----------------------------------|
B     ----------------------------------------|
G     ------14------------14<16>14------------|
D     ----------------------------------------|
A     ----------------------------------------|
E     ----------------------------------------|...


^     -Hammer on
      -Pull off
      -Tap (t)
<     -bend to value of next number
>     -unbend
/     -slide up
\     -slide down
AH    -artificial harmonic
PM    -palm mute
Comments