Van Halen - Humans Being Chords & Tabs

 

Humans Being Chords & Tabs

Van Halen Chords & Tabs

Version: 3 Type: Tab 0 ratings
1 star 2 stars 3 stars 4 stars 5 stars
comments

Humans Being Tab

   
-------------------------------------------------------------------------------
			     Human's Being - Van Halen
-------------------------------------------------------------------------------

Tabbed by: Jesse Benedick
Email: Cartguysam@aol.com

Tuning: Standard
[ Tab from: http://www.guitartabs.cc/tabs/v/van_halen/humans_being_tab_ver_3.html ]
e|----------------1----------------------------------------------------------|
B|---4-----------4-----------4----------------4------------------------------|
G|--3---3--5----3----3--5---3---3--5------------6----------------------------|
D|-1----4--6---1-----4--6--1----4--6--------4-----4--------------------------|
A|------4--6---------4--6-------4--6------6---------4------------------------|
E|------------------------------------4h7------------------------------------|
 Repeat twice
e|--------------------1------------------------------------------------------|
B|----4--------------4--------------------4h6--4-----------------------------|
G|---3---3--5-------3----3--5----------3--3----3-----------------------------|
D|--1----4--6------1-----4--6----------4----------\\\\\\\\\\\\\\\------------|
A|-------4--6------------4--6------6~--4----------\\\\\\\\\\\\\\\------------|
E|-------------xx--------------xx--------------------------------------------|
                                                  Pick scratch
e|-------------------------|-------------------------------------------------|
B|-------------------------|----------4--------------------------------------|
G|--8---3---5--------------|------------6------------------------------------|
D|--8---4---6--------------|--------4-----4----------------------------------|
A|--6---4---6--------------|------6---------4--------------------------------|
E|--6-x-2---4--xx----------|--4h7--------------------------------------------|
 Main part(repeat 3 times)  then at the end
e|----11----13----14----9--11--9h11--9~--------------------------------------|
B|--9-----9-----9-----9------------------------------------------------------|
G|---------------------------------------8--6h8--6~--------------------------|
D|---------------------------------------------------------------------------|
A|---------------------------------------------------------------------------|
E|---------------------------------------------------------------------------|
 First breakdown 
e|------9---11---13---14---9-11~---13--------------22b23r22------------------|
B|--9-9---9----9----9----9------------13-11----------------------------------|
G|------------------------------------------13-11~---------------------------|
D|---------------------------------------------------------------------------|
A|---------------------------------------------------------------------------|
E|---------------------------------------------------------------------------|

e|---------------------------------------------------------------------------|
B|--7-------7-6-4-------6----------------------------------------------------|
G|--6-----6-------6-----8----------------------------------------------------|
D|--4---4-----------4---8------------4--3h4p3--------------------------------|
A|----------------------6---0-2-4--6----------4------------------------------|
E|---------------------------------------------------------------------------|
Chorus  Mute---------

So far that's all I have, but the solo is at guitarnotes.com. Enjoy!


| /  slide up
| \  slide down
| h  hammer-on
| p  pull-off
| ~  vibrato
| +  harmonic
| x  Mute note

===============================================================================
Comments