Van Halen - Hot For Teacher Chords & Tabs

 

Hot For Teacher Chords & Tabs

Van Halen Chords & Tabs

Version: 1 Type: Tab 12 ratings
1 star 2 stars 3 stars 4 stars 5 stars
comments

Hot For Teacher Tab

   
Hot For Teacher – Van Halen
By Ryan Whiteman

Key
h- hammer on
p- pull off
s- slide
/- continuous fast picking
E|---------------------------|---------------------------|
B|---------------------------|---------------------------|
G|---------------------------|---------------------------|
D|---------------------------|---------------------------|
A|-12p7p3p0h3h7-12p7p3p0h3h7-|-12p7p3p0h3h7-12p7p3p0h5h9-|
E|---------------------------|---------------------------|

E|-----------------------------|
B|-----------------------------|
G|-----------------------------|
D|-----------------------------|
A|-12p9p5p0h5h9-12p9p5p0h5h12--|
E|-----------------------------|

E|----------------------------|
B|----------------------------|
G|----------------------------|
D|-------------------12p0h3h7-|
A|-12p9p5p0h5h9-12p9----------|
E|----------------------------|

E|---------------------------|----------------------------|
B|---------------------------|----------------------------|
G|---------------------------|----------------------------|
D|-12p7p3p0h3h7-12p7p3p0h3h7-|-12p7p3p0h3h7-12p7p3p0h5h9--|
A|---------------------------|----------------------------|
E|---------------------------|----------------------------|

E|------------------------------|
B|------------------------------|
G|------------------------------|
D|-12p9p5p0h5h9-12p9p5p0h5h9-12p|
A|------------------------------|
E|------------------------------|

E|------------------------|---------------------------|
B|------------------------|---------------------------|
G|---------------12p0h3h7-|-12p7p3p0h3h7-12p7p3p0h5h9-|
D|-9---9----9p7-----------|---------------------------|
A|------------------------|---------------------------|
E|------------------------|---------------------------|

E|---------------------------|------------------------------|----------12p5h8-|
B|---------------------------|------------------------------|-----------------|
G|-12p9p5p0h5h9-12p9p5p0h3h7-|-12p7p3p0h3h7-12p7p3p0h5h9-12p|-9-----9---------|
D|---------------------------|------------------------------|-----------------|
A|---------------------------|------------------------------|-----------------|
E|---------------------------|------------------------------|-----------------|





E|-12p8p7p5-----------------------|--------------------------------|
B|----------8h-12p8p7p5-----------|--------------------------------|
G|----------------------8h-12p8p7p|-5----------------------------2-|
D|--------------------------------|---8h-12p8p7p5----------------2-|
A|--------------------------------|---------------8h-12p10p7p5p0---|
E|--------------------------------|------------------------------2-|




E|--------------------------------|------------------------------------|
B|--------------------------------|------------------------------------|
G|--------------------------------|------------------------------------|
D|--------------------------------|-10-8-3-----------------------------|
A|-5--11-10-6-8—-6s8--5-----------|-8--6-1--7-8-7-8--11-10-7-8-7-8-1-1-|
E|-3--9--8--8-10-8s10-3-----------|---------5-6-5-6--9--8--5-6-5-5-3-3-|

           Clean
E|----------------------------------|
B|----------------------------------|
G|----------------------------------|
D|-2------2------2---------------1p-| repeat 3x
A|-0-3-3p-0-3-3p-0-3-3p-0-h3p-------|
E|----------------------------------|

E|----------------------------------|
B|----------------------------------|
G|----------------------------------|
D|-2------2------2------------------| 
A|-0-3-3p-0-3-3p-0-3-3p-0-3---------|
E|----------------------------------|

           Distortion
E|----------------------------------|
B|----------------------------------|
G|----------------------------------|
D|-2------2------2---------------1p-| repeat 5x
A|-0-3-3p-0-3-3p-0-3-3p-0-h3p-------|
E|----------------------------------|

E|-----------------------------------|------------------------------------|
B|-----------------------------------|------------------------------------|
G|-----------------------------------|------------------------------------|
D|-2------2------2-------------------|------------------------------------|
A|-0-3-3p-0-3-3p-0-3-3p-0-13-12-10-12|-13-12-10-12-9-9-8-8-7-7-6-6-5-4-3--|
E|------------------------11-10-8--10|-11-10-8--10-7-7-6-6-5-5-4-4-3-2-1-0|

E|----------------------------------|
B|----------------------------------|
G|----------------------------------|
D|-2------2------2---------------1p-| repeat 3x
A|-0-3-3p-0-3-3p-0-3-3p-0-h3p-------|
E|----------------------------------|

E|----------------------------------|
B|----------------------------------|
G|----------------------------------|
D|-2------2------2------------------| 
A|-0-3-3p-0-3-3p-0-3-3p-0-3-3-------|
E|----------------------------------|

     Clean
E|----------------------------------|
B|----------------------------------|
G|----------------------------------|
D|-2------2------2---------------1p-| repeat 3x
A|-0-3-3p-0-3-3p-0-3-3p-0-h3p-------|
E|----------------------------------|

E|----------------------------------|
B|----------------------------------|
G|----------------------------------|
D|-2------2------2------------------| 
A|-0-3-3p-0-3-3p-0-3-3p-0-3---------|
E|----------------------------------|

           Distortion
E|----------------------------------|
B|----------------------------------|
G|----------------------------------|
D|-2------2------2---------------1p-| repeat 5x
A|-0-3-3p-0-3-3p-0-3-3p-0-h3p-------|
E|----------------------------------|

E|-----------------------------------|------------------------------------|
B|-----------------------------------|------------------------------------|
G|-----------------------------------|------------------------------------|
D|-2------2------2-------------------|------------------------------------|
A|-0-3-3p-0-3-3p-0-3-3p-0-13-12-10-12|-13-12-10-12-9-9-8-8-7-7-6-6-5-4-3--|
E|------------------------11-10-8--10|-11-10-8--10-7-7-6-6-5-5-4-4-3-2-1-0|
[ Tab from: http://www.guitartabs.cc/tabs/v/van_halen/hot_for_teacher_tab.html ]
E|----------------------------------|
B|----------------------------------|
G|----------------------------------|
D|-2------2------2---------------1p-| repeat 3x
A|-0-3-3p-0-3-3p-0-3-3p-0-h3p-------|
E|----------------------------------|

E|---------------|
B|---------------|
G|---------------|
D|-2------2------|
A|-0-3-3p-0-3-3p-|
E|---------------|

E|----------------------------|-------------------------|
B|----------------------------|-------------------------|
G|-6-6-6-6-9-9-9-9-9-11-11-11-|-13-13-13-13h14---14-----|
D|----------------------------|-------------------------|
A|----------------------------|-------------------------|
E|----------------------------|-------------------------|

E|----------------------14-------------|
B|-14h17p14-14-14-17p14----14h17p14----|
G|----------------------------------16-|
D|-------------------------------------|
A|-------------------------------------|
E|-------------------------------------|




E|------------------------------------------------------|--------------------|
B|-14-----------------------------14--------------------|--------------------|
G|----16-18---18---16-p14-16—16------14-16—18---14p-16--|--16------16----2---|
D|------------------------------------------------------|--------------------|
A|------------------------------------------------------|--------------------|
E|------------------------------------------------------|--------------------|

E|----------------------|------------------------|-2-----2-2--------------|
B|----------------------|----------------------2-|---5p2-----5p2p0-5-5-5p-|
G|-2-3—2--4—2-2--5----2-|---2-2-5----2-4-6—6-----|------------------------|
D|------------------4---|----------4-------------|------------------------|
A|----------------------|------------------------|------------------------|
E|----------------------|------------------------|------------------------|

E|-----------------------------|------------------------|-----2---------2------|
B|-2p0-5-5-5p2p0-5-5-5p2p0-5-5-|-5p2p0-5-5-5p2p0---5b6--|--5----2-5-2-----2----|
G|-----------------------------|------------------------|-------------5-----5p-|
D|-----------------------------|------------------------|----------------------|
A|-----------------------------|------------------------|----------------------|
E|-----------------------------|------------------------|----------------------|

E|---------------|---------------|-------12-|
B|--------6----7-|----9----10----|-10-------|
G|---5-----------|---------------|----------|
D|---------------|---------------|----------|
A|---------------|---------------|----------|
E|---------------|---------------|----------|

E|--12---14-----14-14-----14------14---|
B|-------17-19-----17-19--17--19--19---|
G|-------------------------------------|
D|-------------------------------------|
A|-------------------------------------|
E|-------------------------------------|

E|-14------------14-16p14------17p|
B|----17-19--19------------14-----|
G|--------------------------------|
D|--------------------------------|
A|--------------------------------|
E|--------------------------------|

E|-14---19p14----17--17p14-----|-17-16---17---16h17p16p14-|
B|------------14------------14-|--------------------------|
G|-----------------------------|--------------------------|
D|-----------------------------|--------------------------|
A|-----------------------------|--------------------------|
E|-----------------------------|--------------------------|

E|----14-----------------------------14-|-------------------14-------------|
B|-17----17-17-19---19---17--14---------|-14h15p14-------14----17p14----14-|
G|-------------------------------17-----|----------16-18-------------16----|
D|--------------------------------------|----------------------------------|
A|--------------------------------------|----------------------------------|
E|--------------------------------------|----------------------------------|






E|-------------------------|----------------------2-----|-----------------------|
B|-------------------------|--------------------2-------|---------2-------------|
G|-14-16---14p-16---16p14--|--14---14---4-6--6------4-6-|--4--2-----2---2—4--6--|
D|-------------------------|----------------------------|-------4---------------|
A|-------------------------|----------------------------|-----------------------|
E|-------------------------|----------------------------|-----------------------|

E|--------|
B|--------|
G|--------|
D|--------|
A|--------|
E|3-3-3-3-|

     Clean
E|----------------------------------|
B|----------------------------------|
G|----------------------------------|
D|-2------2------2---------------1p-| repeat 3x
A|-0-3-3p-0-3-3p-0-3-3p-0-h3p-------|
E|----------------------------------|

E|----------------------------------|
B|----------------------------------|
G|----------------------------------|
D|-2------2------2------------------| 
A|-0-3-3p-0-3-3p-0-3-3p-0-3---------|
E|----------------------------------|

           Distortion
E|----------------------------------|
B|----------------------------------|
G|----------------------------------|
D|-2------2------2---------------1p-| repeat 2x
A|-0-3-3p-0-3-3p-0-3-3p-0-h3p-------|
E|----------------------------------|

E|-------------------------------------|
B|-------------------------------------|
G|-------------------------------------|
D|-2------2------2--------12-12-13-14--| repeat 2x
A|-0-3-3p-0-3-3p-0-3-3p-0-10-10-11-12--|
E|-------------------------------------|

E|-------------------------------------|
B|-------------------------------------|
G|-------------------------------------|
D|-2------2------2--------12-12-13-14--| 
A|-0-3-3p-0-3-3p-0-3-3p-0-10-10-11-12--|
E|-------------------------------------|

E|------------|
B|------------|
G|------------|
D|12-12-13-14-| repeat 4x
A|10-10-11-12-|
E|------------|




E|------------------------------|
B|------------------------------|
G|------------------------------|
D|14/-------------9-14----------|
A|12/-5/--7-5---5-7-12-7--------|
E|----3/--5-3-0-3------5--------|


Comments