Van Halen - Everybody Wants Some Chords & Tabs

 

Everybody Wants Some Chords & Tabs

Van Halen Chords & Tabs

Version: 1 Type: Tab 0 ratings
1 star 2 stars 3 stars 4 stars 5 stars
comments

Everybody Wants Some Tab

the tablatures are pretty acurate, be gentle its my first tabbing.

Intro

-------------------------------------------------------------------------|
-------------------------------------------------------------------------|
-------------------------------------------------------------------------|
-------------------------------------------------------------------------|
-------------------------------------------------------------------------|
-put you palm on bridge on this string and rub it down and up constantly-

-----------------------------------------------------------|
-----------------------------------------------------------|
---------2-0-2-0-------------------------------------------|
-2---2---2-0-2-0-------------------------------------------|
-2---2---0-------------------------------------------------|
-0-0-0-0-----------just repeat this riff throught song-----|

solo
------------------------------------------------------------|
-10-10-10-9--9--9--7-7-7-5-5-5------------------------------|
-12-12-12-11-11-11-9-9-9-7-7-7--repeat-twice----------------|
------------------------------------------------------------|
------------------------------------------------------------|
------------------------------------------------------------|
[ Tab from: http://www.guitartabs.cc/tabs/v/van_halen/everybody_wants_some_tab.html ]
------------------------------------------------------------|
-10-10-10-12-12-12-15-15-15---------------------------------|
-12-12-12-14-14-14-17-17-17---------------------------------|
------------------------------------------------------------|
------------------------------------------------------------|
------------------------------------------------------------|

-17-17-17-16-16-16-14-14-14-12-12-12-repeat-3-times---------|
------------------------------------------------------------|
------------------------------------------------------------|
------------------------------------------------------------|
------------------------------------------------------------|
------------------------------------------------------------|

-17-17-17-18-18-18-20b-20b-20b-20---------------------------|
------------------------------------------------------------|
------------------------------------------------------------|
------------------------------------------------------------|
------------------------------------------------------------|
------------------------------------------------------------|

end of solo

===========================================================
the part when dave talks and edd plays the guitar after each senteces that he does , and 
hear the intro drums in background

------------------------------------------------------------------|
------------------------------------------------------------------|
------------------------------------------------------------------|
-2-2-2----5-5-5---------------------------------------------------|
-2-2-2----5-5-5---------------------------------------------------|
-0-0-0----3-3-3--reapeat this through the part near end of -------|

then go back to main riff
Comments