Van Halen - Eruption Chords & Tabs

 

Eruption Chords & Tabs

Van Halen Chords & Tabs

Version: 7 Type: Tab 0 ratings
1 star 2 stars 3 stars 4 stars 5 stars
comments

Eruption Tab

 Rodney Echum//  - *just to give you guys a clearer view*on taps in Eruption
walk_become@hotmail.com
[ Tab from: http://www.guitartabs.cc/tabs/v/van_halen/eruption_tab_ver_7.html ]
        4x             4x            3x
   t  p  t  p      t  p   t  p     t   p  t   p       t   p   t   p
E-----------------------------------------------------------------------------
B---9-5-2-9-5-2----10-5-2-10-5-2---10-7-4-10-7-4-----12-7-4--12-7-4-----------
G-----------------------------------------------------------------------------
D-----------------------------------------------------------------------------
A-----------------------------------------------------------------------------
E-----------------------------------------------------------------------------
         4x              3x                                 3x
    t  p   t   p    t   p   t   p    t   p   t   p      t    p   t    p
E-----------------------------------------------------------------------------
B--12-9-5--12-9-5---13-8-5--13-8-5---15-8-5--15-8-5-----15-10-7--15-10-7------
G-----------------------------------------------------------------------------
D-----------------------------------------------------------------------------
A-----------------------------------------------------------------------------
E-----------------------------------------------------------------------------
                              16x         {---------------------------repeat--
    t   p   t    p     t    p   t    p     t   p   t    p    t    p   t    p 
E-----------------------------------------------------------------------------
B--17-10-7--17-10-7----17-12-9--17-12-9---17-15-12-17-15-12--17-14-11-17-14-11
G-----------------------------------------------------------------------------
D-----------------------------------------------------------------------------
A-----------------------------------------------------------------------------
E-----------------------------------------------------------------------------
------------------------------------} 
   t   p   t    p     t   p  t    p   t      t    p   t   p   t    p   t   p
E-----------------------------------------------------------------------------
B-17-13-10-17-13-10--17-12-9-17-12-9--15-12--15-12-9-15-12-9--15-11-8-15-11-8-
G-----------------------------------------------------------------------------
D-----------------------------------------------------------------------------
A-----------------------------------------------------------------------------
E-----------------------------------------------------------------------------

    t   p  t    p   t   p     t    p  t    p   t   p  t   p   t   p  t   p
E-----------------------------------------------------------------------------
B--15-10-7-15-10-7--15-9-6----13-10-7-13-10-7--13-9-6-13-9-6--13-8-5-13-8-5---
G-----------------------------------------------------------------------------
D-----------------------------------------------------------------------------
A-----------------------------------------------------------------------------
E-----------------------------------------------------------------------------
                  4x               4x                  4x
   t   p      t   p  t   p       t  p   t   p     t   p  t   p
E-----------------------------------------------------------------------------
B--13-7-4-----12-7-4-12-7-4-----12-8-5--12-8-5----12-7-4-12-7-4---------------
G-----------------------------------------------------------------------------
D-----------------------------------------------------------------------------
A-----------------------------------------------------------------------------
E-----------------------------------------------------------------------------

    t  p   t   p   t   p   t   p   t   p   t   p   t   p   t   p
E-----------------------------------------------------------------------------
B--12-8-5--12-7-4--12-8-5--12-7-4--12-8-5--12-7-4--12-8-5--12-7-4---etc-------
G-----------------------------------------------------------------------------
D-------then its done---------------------------------------------------------
A-----------------------------------------------------------------------------
E-----------------------------------------------------------------------------
Comments