Van Halen - Dreams Chords & Tabs

 

Dreams Chords & Tabs

Van Halen Chords & Tabs

Version: 2 Type: Tab 0 ratings
1 star 2 stars 3 stars 4 stars 5 stars
comments

Dreams Tab

This is a pretty cool song...tabbed out the intro and outro myself.
It's pretty easy so have fun learning!!!...will come back with the solo
when i'm done tabbing it!

e-----------------------------0------------------0-1-1--1/3--0---0----
B-0-1-1-3-3--1-1----0-1-1-3-3---1-0-0h1p0----0-1---------------3---3-1
G--0--------------0------------------------0--------------------------
D---------------------------------------------------------------------
A---------------------------------------------------------------------
E---------------------------------------------------------------------

e-0h1---0------------
B-3-----1---3-3------
G-----------5-5------
D--------------------
A--------------------
e--------------------

e-----------------------------0------------------0-1-1--1/3--0---0----
B-0-1-1-3-3--1-1----0-1-1-3-3---1-0-0h1p0----0-1---------------3---3-1
G--0--------------0------------------------0--------------------------
D---------------------------------------------------------------------
A---------------------------------------------------------------------
E---------------------------------------------------------------------
[ Tab from: http://www.guitartabs.cc/tabs/v/van_halen/dreams_tab_ver_2.html ]
e-0h1-1--0-0-----------
B-3---3--1-1--3-3------
G-------------5-5------
D----------------------
A----------------------
e----------------------
                    (quicker then the 1st time)
e-----0-0--1--0------0-0-1-0--------0-0--1----------0-0---------------
B-3-3-1-1--3--1--3-3-1-1-3-1----3-3-1-1--3--3-1--1--1-1-3-------------
G-5-5------------5-5------------5-5---------5-2--2------5-------------
D---------------------------------------------------------------------
A---------------------------------------------------------------------
E---------------------------------------------------------------------

e-----0-0--1--0------0-0-1-0--------0-0--1------0---1--0-0------------
B-3-3-1-1--3--1--3-3-1-1-3-1----3-3-1-1--3--3-1-1-3-3--1-1-3----------
G-5-5------------5-5------------5-5---------5-2---5--------5----------
D---------------------------------------------------------------------
A---------------------------------------------------------------------
E---------------------------------------------------------------------

This is the Outro
e-0-0-1-----1-1------------------
B-------1-------3-----1----------
G-----------------3-----2---0----
D-------------------3-----3------
A--------------------------------
E--------------------------------

Well here it is...hope ya enjoy it...and hope i didn't write any tab
wrongly...plz do me a favor as well...e-mail me at Negatron_Excelsior@hotmail.com
and tell me how i fared!!!

Thanx!!!
Comments