Van Halen - Dance The Night Away Chords & Tabs

 

Dance The Night Away Chords & Tabs

Van Halen Chords & Tabs

Version: 3 Type: Tab 0 ratings
1 star 2 stars 3 stars 4 stars 5 stars
comments

Dance The Night Away Tab

   
BAnd- Van Halen
Song- Dance The Night Away

Gtr I (Eb Ab Db Gb Bb Eb) - 'Edward Van Halen - Lead / Rhythm w/dist'
Gtr II (Eb Ab Db Gb Bb Eb) - 'Edward Van Halen - clean electric w/flanger'

Intro
  Q=128
 4/4
  Gtr I
                             PM    PM|                             PM
  Wx2          Q  E E E  E E E   E E E E E E E E   +E  E Q  E  E E E
|------------|-----------------|-----------------|--------------------|
|------------|----9---9-10-----|-9-----7s5---5-5-|-(5)---9--9-10------|
|------------|----9---9--9-----|-9-8-8-8s6-6-6-4-|-(4)---9--9--9------|
|------------|----9-9--------9-|---9-9-----------|-------9--9------9--|
|------------|-----------------|-----------------|--------------------|
|------------|-0---------------|-----------------|-----0--------------|


    PM|                                   PM
  E E E E +Q   +E   E   +E   E  Q  E  E E E
|---------------------|---------------------|
|-9-----7-(7)--(7)\---|---------9--9-10-----|
|-9-6-6-8-(8)--(8)\---|---------9--9--9-----|
|-----7-9-(9)--(9)\---|---------9--9------9-|
|---------------------|---------------------|
|-------------------0-|-(0)-(0)-------------|


    PM|       PM                     PM
  E E E E E E E E   +E  E E E E  E E E
|-----------------|--------------------|
|-9-----7s5-5---5-|-(5)---9-9-9-10-----|
|-9-8-8-8s6-6---4-|-(4)---9-9-9--9-----|
|---9-9-9s7-7-7---|-------9-9-9--9---9-|
|-----------------|--------------------|
|-----------------|-----0--------------|


                        Verse 1
    PM|                                  PM    PM|       PM
  E E E E +Q   +E   E    +Q   E E E  E E E   E E E E E E E E
|---------------------||-------------------|-----------------|
|-9-----7-(7)--(7)\---||------9-9-9-10-----|-9-----7s5-5---5-|
|-9-6-6-8-(8)--(8)\---||------9-9-9--9-----|-9-8-8-8s6-6---4-|
|-9-7-7-9-(9)--(9)\---||------9-9-9------9-|---9-9-9s7-7-7---|
|---------------------||-------------------|-----------------|
|-------------------0-||-(0)---------------|-----------------|


                  PM    PM|                      PM  PM       PM
  +E  E Q  E  E E E   E E E  E +Q   +E   E   +E  E E E E  E E E
|-------------------|----------------------|--------------------|
|-(5)---9--9-10-----|-9-----/7-(7)--(7)\---|-------9---9-10-----|
|-(4)---9--9--9-----|-9-6-6-/8-(8)--(8)\---|-------9---9--9-----|
|-------9--9------9-|---7-7-/9-(9)--(9)\---|---------9--------9-|
|-------------------|----------------------|--------------------|
|-----0-------------|--------------------0-|-(0)-0--------------|


    PM|                             PM    PM|
  E E E E E E E E   +E  E Q  E  E E E   E E E E +Q.   +E


|-----------------|-------------------|--------------------||
|-9-7-7-7s5-5-5-5-|-(5)---9--9-10-----|-9-----7-(7)---(7)\-||
|-9-8-8-----6-6-4-|-(4)---9--9--9-----|-9-6-6-8-(8)---(8)\-||
|-----------------|-------9--9------9-|-9-7-7-9-(9)---(9)\-||
|-----------------|-------------------|--------------------||
|-----------------|-----0-------------|--------------------||


 Pre-Chorus
                   PM             PM--|
  Q  E E H      Q  E E +E  Q.     E E E E +E   E E E   +Q.   E +E  E  E  E
|-------------|-----------------|--------------------|----------------------|
|-------------|------4-(4)------|--------------------|-------7-(7)-5p=4-----|
|-------------|-4----4-(4)-4----|----------------x-4-|-(4)---4-(4)-4-(4)-4--|
|----4---6----|----4------------|-6-6-6-6-(6)/---x-4-|-(4)------------------|
|----2---4----|-----------------|-4-4-4-4-(4)/-------|----------------------|
|-------------|-----------------|--------------------|----------------------|


                   PM                         PM|         PM
  Q  E E H      Q  E E +E  E E E   Q   Q  +E  E E E   E E E E E E E E
|-------------|------------------|----------------4-|------------------||
|-------------|------4-(4)-5-4---|----^5--(5)-4-----|---4---5---4---5--||
|-------------|-4----4-(4)-4-4-4-|----^6--(6)---6---|---4---4---4---4--||
|----4---6----|-4--4-------------|----^6--(6)-------|---4-4-4---4---4--||
|----2---4----|------------------|----^4--(4)-------|------------------||
|-------------|------------------|------------------|------------------||


 Chorus
  Gtr II
     T        T       T     T     T        T      T     T     T     T     T     T     T
  Q  Q       +E       E     E     E       +E      E     E     E     E     E     E     E
|---------------------------------------|---------------------------------------------------|
|----9(21)---(9(21))-10(22)-9(21)-9(21)-|-(9(21))-7(19)-------------5(17)-------------------|
|---------------------------------------|---------------8(20)-------------6(18)-------------|
|---------------------------------------|---------------------9(21)-------------7(19)-6(18)-|
|---------------------------------------|---------------------------------------------------|
|---------------------------------------|---------------------------------------------------|
|-Riff A
|
| Gtr I
| Q  E     E  E       E     E     E        E      E     E     E     E     E     E     E
|---------------------------------------|---------------------------------------------------|
|----9--------9------10-----------------|--9------7-----7-----------------5-----5-----5-----|
|----9--------9-------9-----------------|--9------8-----8-----8s====6-----6-----6-----4-----|
|----9-----9----------------------9-----|---------9-----9-----9s====7-----------------------|
|---------------------------------------|---------------------------------------------------|
|-0-------------------------------------|---------------------------------------------------|


   T        T        T       T     T
  +E      E Q       +E       E     E     E
|------------------------------------------|
|-----------9(21)---(9(21))-10(22)-9(21)---|
|------------------------------------------|
|-(6(18))s9--------------------------------|
|------------------------------------------|
|------------------------------------------|
|
|  E      E E     E  E       E     E     E
|------------------------------------------|
|--5--------9-----9--9------10-------------|
|--4--------9-----9--9-------9-------------|
|-----------9-----9--9-------------------9-|
|------------------------------------------|
|---------0--------------------------------|


  T     T     T      T      T      T      T               T        T       T     T     T
  E     E     E      E     +E      E      E     E   +Q    Q       +E       E     E     E
|-------------------------------------------------|------------------------------------------|
|-5(17)-------5(17)--7(19)-(7(19))----------------|-------9(21)---(9(21))-10(22)-9(21)-9(21)-|
|-------6(18)----------------------8(20)----------|------------------------------------------|
|-----------------------------------------9(21)---|------------------------------------------|
|-------------------------------------------------|------------------------------------------|
|-----------------------------------------------0-|-(0)--------------------------------------|
|
|                                                                                      PM
| E     E     E      E     +Q            +E     E   +E  E E     E  E       E     E     E
|-------------------------------------------------|------------------------------------------|
|-9-----------------/7-----(7)-----------(7)\-----|-------9-----9--9------10-----------------|
|-9-----6-----6-----/8-----(8)-----------(8)\-----|-------9-----9--9-------9-----------------|
|-------7-----7-----/9-----(9)-----------(9)\-----|-------9-----9--9-------------------9-----|
|-------------------------------------------------|------------------------------------------|
|-----------------------------------------------0-|-(0)-0------------------------------------|


   T      T     T     T     T     T     T     T
  +E      E     E     E     E     E     E     E
|---------------------------------------------------|
|-(9(21))-7(19)-------------5(17)-------------------|
|---------------8(20)-------------6(18)-------------|
|---------------------9(21)-------------7(19)-6(18)-|
|---------------------------------------------------|
|---------------------------------------------------|
|
|         PM----|                       PM
|  E      E     E     E     E     E     E     E
|---------------------------------------------------|
|--9------------------7s====5-----5-----------5-----|
|--9------8-----8-----8s====6-----6-----6-----4-----|
|---------9-----9-----9s====7-----------------------|
|---------------------------------------------------|
|---------------------------------------------------|


   T      T     T       T       T     T
  +E      E     Q      +E       E     E     E
|---------------------------------------------|
|---------------9(21)--(9(21))-10(22)-9(21)---|
|---------------------------------------------|
|-(6(18))s9(21)-------------------------------|
|---------------------------------------------|
|---------------------------------------------|
|                                  end Riff A-|
|
|                                           PM
| +E      E     Q       E       E     E     E
|---------------------------------------------|
|-(5)-----------9-------9------10-------------|
|-(4)-----------9-------9-------9-------------|
|---------------9-------9-------------------9-|
|---------------------------------------------|
|---------0-----------------------------------|


                                                    Verse 2
  T     T     T     T      T      T      T                T
  E     E     E     E     +E      E      Q            Q   H.
|-------------------------------------------------||------7(19)------------|
|-5(17)-------5(17)-7(19)-(7(19))-----------------||-----------------------|
|-------6(18)---------------------8(20)-----------||-----------------------|
|----------------------------------------9(21)\---||-----------------------|
|-------------------------------------------------||-----------------------|
|-------------------------------------------------||-----------------------|
|
|       PM----|                                           PM-------------|
| E     E     E     E     +Q            +E      E    +Q   E     E E  E E E
|-------------------------------------------------||-----------------------|
|-9-----------------7-----(7)-----------(7)\------||------9-------9-10-----|
|-9-----6-----6-----8-----(8)-----------(8)\------||------9-------9--9-x---|
|-------7-----7-----9-----(9)-----------(9)\------||------------7--------9-|
|-------------------------------------------------||-----------------------|
|-----------------------------------------------0-||-(0)-------------------|


  Gtr I
  PM--|     PM|                      PM    PM|
  E E E E E E E E   +E  E E E E  E E E   E E E  E +Q   E  E
|-----------------|--------------------|--------------------|
|-9-----7s5-5-5-5-|-(5)---9-9-9-10-----|-9------------------|
|-9-8-8-8s6-6-6-4-|-(4)---9-9-9--9-----|-9-6-6-/8-(8)-------|
|-------9s7-------|-------9-9-9------9-|---7-7-/9-(9)-------|
|-----------------|--------------------|--------------------|
|-----------------|-----0--------------|---------------9\-0-|


      PM-------------------|
  +E  E E E E  E E E   E E E E E E E E
|--------------------|-----------------|
|-------9---9-10-----|-9-----7s5-5-5-5-|
|-------9---9--9-----|-9-8-8-8s6-6-6-4-|
|---------9--------9-|-------9s7-------|
|--------------------|-----------------|
|-(0)-0--------------|-----------------|


                  PM    PM|
  +E  E Q  E  E E E   E E E E +E   E E E
|-------------------|---------------------||
|-(5)---9--9-10-----|-9-------------------||
|-(4)---9--9--9-----|-9-----8-(8)\--------||
|-------9--9------9-|---7-7-9-(9)\-----2--||
|-------------------|----------------2----||
|-----0-------------|--------------4------||


 Pre-Chorus
                                  PM|
  Q  E E H      Q  E E +E  Q.     E E Q   Q    E  E   +Q.   E +E  E E E
|-------------|-----------------|-------------------|--------------------|
|-------------|------4-(4)------|-------------------|-------7-(7)-5p4----|
|-------------|-4----4-(4)-4----|-----------------4-|-(4)---4-(4)-4---4--|
|----4---6----|-4--4------------|-6-6-6/----------4-|-(4)----------------|
|----2---4----|-----------------|-4-4-4/------------|--------------------|
|-------------|-----------------|---------x\--12\---|--------------------|


  Q  E E H      Q  E E +E  E E E   Q   Q  +E  E E E   E E E E E E E E
|-------------|------------------|----------------4-|------------------||
|-------------|------4-(4)-5p4---|----^5--(5)-4-----|---4---5---4---5--||
|-------------|-4----4-(4)-----4-|----^6--(6)---6---|---4---4---4---4--||
|----4---6----|-4--4-------------|----^6--(6)-------|---4---4---4---4--||
|----2---4----|------------------|----^4--(4)-------|------------------||
|-------------|------------------|------------------|------------------||


 Chorus
w/Riff A
  Gtr I
  Q  E     E  E       E     E     E       E     E     E     E     E     E     E     E
|---------------------------------------|-------------------------------------------------|
|----9--------9------10-----------------|-9-----------------7s====5-----5-----5-----5-----|
|----9--------9-------9-----------------|-9-----8-----8-----8s====6-----6-----6-----4-----|
|----9-----9----------------------9-----|-------9-----9-----------------------------------|
|---------------------------------------|-------------------------------------------------|
|-0-------------------------------------|-------------------------------------------------|


  +E      E     Q       E       E     E     E
|---------------------------------------------|
|-(5)-----------9-------9------10-------------|
|-(4)-----------9-------9-------9-------------|
|---------------9-------9-------------------9-|
|---------------------------------------------|
|---------0-----------------------------------|


        PM----|                                             PM                     PM
  E     E     E     E     +Q            +E     E   Q  E     E  E       E     E     E
|------------------------------------------------|---------------------------------------|
|-9-----------------7-----(7)-----------(7)\-----|----9--------9------10-----------------|
|-9-----6-----6-----8-----(8)-----------(8)\-----|----9--------9-------9-----------------|
|-9-----7-----7-----9-----(9)-----------(9)\-----|----------9----------------------9-----|
|------------------------------------------------|---------------------------------------|
|----------------------------------------------0-|-0-------------------------------------|


  E     E     E     E     E     E     E     E
|-------------------------------------------------|
|-9-----7-----7-----7s====5-----5-----5-----5-----|
|-9-----8-----8-----8s====6-----6-----6-----4-----|
|-------------------------------------------------|
|-------------------------------------------------|
|-------------------------------------------------|

[ Tab from: http://www.guitartabs.cc/tabs/v/van_halen/dance_the_night_away_tab_ver_3.html ]
  +E      E     E     E  E       E     E     E
|----------------------------------------------|
|-(5)-----------9-----9--9------10p====9-------|
|-(4)-----------9-----9--9-------9-----------9-|
|---------------9-----9--9---------------------|
|----------------------------------------------|
|---------0------------------------------------|


  T     T     T     T      T      T     T
  E     E     E     E     +E      E     Q
|-----------------------------------------------||
|-5(17)-------5(17)-7(19)-(7(19))-------5(17)---||
|-------6(18)---------------------6(18)---------||
|-----------------------------------------------||
|-----------------------------------------------||
|-----------------------------------------------||
|
| E     E     E     E     +E      E     E     E
|-----------------------------------------------||
|-7-----------------5-----(5)-------------------||
|-8-----------------6-----(6)-------------------||
|-9-----x-----x-----7-----(7)-------------------||
|---------------------------------0-------------||
|---------------------------------------4p====0-||


 Bridge
  T                     T
  W                    +W
|--------------------|-----------------------|
|-7(19)--------------|-(7(19))---------------|
|--------------------|-----------------------|
|--------------------|-----------------------|
|--------------------|-----------------------|
|--------------------|-----------------------|
|
|                                PM------|
| W                     E      E E E E E E E
|--------------------|-----------------------|
|-5------------------|-(5)-----4-------------|
|-4------------------|-(4)-----4-------------|
|-4------------------|-(4)-----4-4-4-4-4-4-x-|
|-2------2-2-2-2-2-2-|--2--------2-2-2-2-2-x-|
|--------------------|-----------------------|
  Q      E E E E E E


  T                     T         T
  W                    +Q        +H.
|--------------------|------------------------------|
|--------------------|------------------------------|
|--------------------|------------------------------|
|-9(21)--------------|-(9(21))---(9(21))------------|
|--------------------|------------------------------|
|--------------------|------------------------------|
|
|                                 PM-----------|
| W                     E      E  E      E E E E E
|--------------------|------------------------------|
|-0------------------|-(0)-----------------------5--|
|-2------------------|-(2)-----2-----------------4--|
|-2------------------|-(2)-----2-----------------4--|
|-0------0-0-0-0-0-0-|--0---------0------0-0-0-0----|
|--------------------|------------------------------|
  Q      E E E E E E


                                   \2
  T                     T
  W                     Q.        +E  +H
|--------------------|--------------------------|
|--------------------|--------------------------|
|--------------------|--------------------------|
|-9(21)--------------|--9(21)-----(9)-(9)-------|
|--------------------|--------------------------|
|--------------------|--------------------------|
|
|                               PM--------|
| W                     E     E E  E   E  E E E
|--------------------|--------------------------|
|-5------------------|-(5)----4-----------------|
|-4------------------|-(4)----4-----------------|
|-4------------------|-(4)----4-4--4---4--4-----|
|-2------2-2-2-2-2-2-|--2-------2--2---2--2-2p0-|
|--------------------|--------------------------|
  Q      E E E E E E


  +W                  W
|------------------|--------------------||
|------------------|--------------------||
|------------------|--------------------||
|-(9)--------------|--------------------||
|------------------|--------------------||
|------------------|--------------------||
|
|     PM|
|  E  E E E +H       +E  E E E E E E E
|------------------|--------------------||
|--4---------------|-----4---5---4---5--||
|--4------2-(2)----|-(2)-2---2---2---2--||
|--4------2-(2)----|-(2)----------------||
|-----0-0-0-(0)----|-(0)----------------||
|------------------|--------------------||


 Interlude
  Gtr I
     T     T     T     T       T         T          T     T     T
  Q  E     E     E     E     E E       E E     Q.   E     E     E
|------------------------------------|--------------------------------|
|----9(21)-9(21)-9(21)-9(21)---7(19)-|---7(19)s5----5(17)-------------|
|----9(21)-9(21)-9(21)-9(21)---8(20)-|---8(20)s6----------6(18)-------|
|----9(21)-9(21)-9(21)-9(21)---9(21)-|---9(21)s7----------------7(19)-|
|------------------------------------|--------------------------------|
|-0----------------------------------|--------------------------------|


  T      T     T     T     T       T
  Q      E     E     E     E     E E
|----------------------------------------|
|--------9(21)-9(21)-9(21)-9(21)---5(17)-|
|--------9(21)-9(21)-9(21)-9(21)---6(18)-|
|--------9(21)-9(21)-9(21)-9(21)---7(19)-|
|----------------------------------------|
|-0(16)----------------------------------|


    T     T       T     T     T
  E E     Q.      E     E     E
|-----------------------------------|
|---5(17)-7(19)---------------------|
|---6(18)-8(20)---8(20)-8(20)-------|
|---7(19)-9(21)---------------9(21)-|
|-----------------------------------|
|-----------------------------------|


  T      T     T     T     T       T         T     T       T     T     T
  Q      E     E     E     E     E E       E E     Q.      E     E     E
|----------------------------------------|-----------------------------------|
|--------9(21)-9(21)-9(21)-9(21)---7(19)-|---7(19)-5(17)---5(17)-------------|
|--------9(21)-9(21)-9(21)-9(21)---8(20)-|---8(20)-6(18)---------6(18)-------|
|--------9(21)-9(21)-9(21)-9(21)---9(21)-|---9(21)-7(19)---------------7(19)-|
|----------------------------------------|-----------------------------------|
|-0(16)----------------------------------|-----------------------------------|


                                                   >      <
  t      t     t     t     t       t         t     t          t
  q      E     E     E     E     E E       E E     E      A  +q.        q
|----------------------------------------|----------------------------------||
|--------9(21)-9(21)-9(21)-9(21)---5(17)-|---------7(19)-(7)-(7(19))--------||
|--------9(21)-9(21)-9(21)-9(21)---6(18)-|---------8(20)-(8)-(8(20))--------||
|--------9(21)-9(21)-9(21)-9(21)---7(19)-|---7(19)-9(21)-(9)-(9(21))--------||
|----------------------------------------|----------------------------------||
|-0(16)----------------------------------|-----------------------------12\--||


 out-chorus
  gtr ii
     t       t       t     t     t
  q  q      +E       E     E     E
|--------------------------------------|
|----9(21)--(9(21))-10(22)-9(21)-9(21)-|
|--------------------------------------|
|--------------------------------------|
|--------------------------------------|
|-0------------------------------------|
|-riff b
|
| gtr i
|                                pm
| q  q       E       E     E     E
|--------------------------------------|
|----9-------9------10-----------------|
|----9-------9-------9-----------------|
|----9-------9-------9-----------9-----|
|--------------------------------------|
|-0------------------------------------|


  t     t     t     t     t     t     t     t
  E     E     E     E     E     E     E     E
|-------------------------------------------------|
|-9(21)-7(19)-------------5(17)-------------------|
|-------------8(20)-------------6(18)-------------|
|-------------------9(21)-------------7(19)-6(18)-|
|-------------------------------------------------|
|-------------------------------------------------|
|
|       pm----|
| E     E     E     E     E     E     E     E
|-------------------------------------------------|
|-9-----7-----7-----7s====5-----5-----5-----5-----|
|-9-----8-----8-----8s====6-----6-----6-----4-----|
|-------------------------------------------------|
|-------------------------------------------------|
|-------------------------------------------------|


   t      t     t        t       t     t
  +E      E     q       +E       E     E     E
|----------------------------------------------|
|---------------9(21)---(9(21))-10(22)-9(21)---|
|----------------------------------------------|
|-(6(18))s9(21)--------------------------------|
|----------------------------------------------|
|----------------------------------------------|
|
|                     pm                     pm
| +E      E     E     E  E       E     E     E
|----------------------------------------------|
|-(5)-----------9--------9------10-------------|
|-(4)-----------9--------9-------9-------------|
|---------------9-----9----------------------9-|
|----------------------------------------------|
|---------0------------------------------------|


  t     t     t     t      t      t     t
  E     E     E     E     +E      E     E     E
|-----------------------------------------------|
|-5(17)-------5(17)-7(19)-(7(19))---------------|
|-------6(18)---------------------8(20)---------|
|---------------------------------------9(21)---|
|-----------------------------------------------|
|---------------------------------------------0-|
|                                    end riff b-|
|       pm----|
| E     E     E     E     +q.                 E
|-----------------------------------------------|
|-9-----------------7-----(7)-------------------|
|-9-----6-----6-----8-----(8)-------------------|
|-------7-----7-----9-----(9)-------------------|
|-----------------------------------------------|
|---------------------------------------------0-|

w/riff b to end
             pm               pm----|
  +q   E     E  E       E     E     E        E      E     E     E     E     E     E     E
|-----------------------------------------|---------------------------------------------------|
|------9--------9------10-----------------|--9------------------------------5-----5-----5-----|
|------9--------9-------9-----------------|--9------8-----8-----8s====6-----6-----6-----4-----|
|------------9----------------------9-----|---------9-----9-----9-----7-----------------------|
|-----------------------------------------|---------------------------------------------------|
|-(0)-------------------------------------|---------------------------------------------------|


                      pm                     pm
  +E      E     E     E  E       E     E     E
|----------------------------------------------|
|-(5)-----------9--------9------10-------------|
|-(4)-----------9--------9-------9-------------|
|---------------9-----9----------------------9-|
|----------------------------------------------|
|---------0------------------------------------|


        pm                                                                      pm----|
  E     E     E     E     +q            +E     E   +E  E E     E  E       E     E     E
|------------------------------------------------|------------------------------------------|
|-9-----5-----5-----7-----(7)-----------(7)\-----|-------9-----9--9------10-----------------|
|-9-----6-----6-----8-----(8)-----------(8)\-----|-------9-----9--9-------9-----------------|
|-------7-----7-----9-----(9)-----------(9)\-----|-------9----------------------9-----9-----|
|------------------------------------------------|------------------------------------------|
|----------------------------------------------0-|-(0)-0------------------------------------|


   E      E     E     E     E     E     E     E
|---------------------------------------------------|
|---------------------------------5-----5-----5-----|
|--8------8-----8-----8s====6-----6-----6-----4-----|
|--9------9-----9-----9s====7-----------------------|
|---------------------------------------------------|
|---------------------------------------------------|


                                       pm----|
  +E      E     E     E  E       E     E     E
|----------------------------------------------|
|-(5)-----------9-----9--9------10-------------|
|-(4)-----------9-----9--9-------9-------------|
|---------------9-----9----------------9-----9-|
|----------------------------------------------|
|---------0------------------------------------|


                                                                                      pm
  E     E     E     E     +q            E     E   +E  E E     E  E       E      E     E
|-----------------------------------------------|-------------------------------------------|
|-9-----5-----5-----7-----(7)-------------------|-------9-----9--9------10-----10-----------|
|-9-----6-----6-----8-----(8)-------------------|-------9-----9--9-------9------9-----------|
|-9-----7-----7-----9-----(9)-------------------|------------------------9------9-----9-----|
|-----------------------------------------------|-------------------------------------------|
|---------------------------------------7\----0-|-(0)-0-------------------------------------|


   E      E     E     E     E     E     E     E
|---------------------------------------------------|
|--9------7-----7-----7-----------5-----5-----5-----|
|--9------8-----8-----8-----------6-----6-----4-----|
|--9------9-----9-----9-----7-----------------------|
|---------------------------------------------------|
|---------------------------------------------------|


                      pm             pm----|         pm---|
  +E      E     E     E  E     E     E     E   E     E    E    E     +q        +E     E
|--------------------------------------------|------------------------------------------|
|-(5)-----------9--------9----10-------------|-9---------------7-----(7)-------(7)\-----|
|-(4)-----------9--------9-----9-------------|-9-----6----6----8-----(8)-------(8)\-----|
|---------------------9--------------9-----9-|-------7----7----9-----(9)-------(9)\-----|
|--------------------------------------------|------------------------------------------|
|---------0----------------------------------|----------------------------------------0-|


                             pm----|
  +q   q       E       E     E     E        E      E     E     E     E     E     E     E
|----------------------------------------|---------------------------------------------------|
|------9-------9------10-----------------|--9------7-----7-----------------5-----5-----5-----|
|------9-------9-------9-----------------|--9------8-----8-----8s====6-----6-----6-----4-----|
|----------------------------9-----9-----|--9------9-----9-----9s====7-----------------------|
|----------------------------------------|---------------------------------------------------|
|-(0)------------------------------------|---------------------------------------------------|


                                      pm----|
  +E      E     q       E       E     E     E
|---------------------------------------------|
|-(5)-----------9-------9------10-------------|
|-(4)-----------9-------9-------9-------------|
|---------------9-------9-------------9-----9-|
|---------------------------------------------|
|---------0-----------------------------------|


                                                                               pm----|
  E     E     E     E     +q            E     E   +E  E E     E  E       E     E     E
|-----------------------------------------------|------------------------------------------|
|-9-----5-----5-----7-----(7)-------------------|-------9--------9------10-----------------|
|-9-----6-----6-----8-----(8)-------------------|-------9--------9-------9-----------------|
|-9-----7-----7-----9-----(9)-------------------|-------9-----9----------------9-----9-----|
|-----------------------------------------------|------------------------------------------|
|---------------------------------------9\----0-|-(0)-0------------------------------------|


   E      E     E     E     E     E     E     E
|---------------------------------------------------*|
|--9------------------------------5-----5-----5-----*|
|--9------8-----8-----8s====6-----6-----6-----4-----*|
|---------9-----9-----9s====7-----------------------*|
|---------------------------------------------------*|
|---------------------------------------------------*|
Comments