Van Halen - Dance The Night Away Chords & Tabs

 

Dance The Night Away Chords & Tabs

Van Halen Chords & Tabs

Version: 1 Type: Tab 0 ratings
1 star 2 stars 3 stars 4 stars 5 stars
comments

Dance The Night Away Tab

   
Dance the night away - Van Halen(Van Halen II)
Tabbed by Slush
Tune 1/2 step down

/ - Slide up
\ - Slide down
t - tap

Verses and Chorus

e -----------------------------------------------------------
B ----9-----9-10--9--7-7\5-5-----9--9--9-10--5----5/7--------
G ----9-----9--9--9--8-8\6-6-----9--9--9--9--6--6--/8--8-----
D ----9--9--9--9--9--9-9\7-7-----9--9--9--9--7-----/9----9---
A -7--------------------------7------------------------------
E -----------------------------------------------------------


Pre-Chorus

    Ooh, baby, baby.
   C#m C#m  E     A
e --4---4------------------------
B --5---5---9-----5--------------
G --6---6---9-----6--------------
D --6---6---9-----7--------------
A --4---4---7-----7--------------
E ----------------5--------------

  Won'tcha turn your head my way?
         F#
e --------------------------------0-------
B ---------2------------------------4-----
G ---------3--------------------------4---
D ---------4----------------------------2-
A ---------4------------------------------
E ---------2------------------------------

Ooh, baby, baby.
Come on, take a chance.
You're old enough to dance the night away.
Oh, come on, baby, dance the night away.
[ Tab from: http://www.guitartabs.cc/tabs/v/van_halen/dance_the_night_away_tab.html ]
Solo

This is rough but it sounds ok I guess

e -------------------------------------
B ----9-9-9--7--7----------t17---------
G ----9-9-9--8--8--6--6--------t18-----
D ----9-9-9--9--9--7--7------------t19-
A -------------------------------------
E -0-----------------------------------
      
e -------------------------------------
B ----9-9-9--5--5------------------t19-
G ----9-9-9--6--6--8--8--------t20-----
D ----9-9-9--7--7--9--9----t21---------
A -------------------------------------
E -0-----------------------------------
            
Repeat twice

Lyrics

Have you seen her?
So fine and pretty.  Fooled me with her style and ease.
And I feel her from across the room.
Yes, it's love in the third degree.

Ooh, baby, baby.
Come on, take a chance.
You're old enough to dance the night away.
Oh, come on, baby, dance the night away.

A live wire.
Barely a beginner, but just watch that lady go.
She's on fire, 'cause dancing gets her higher than
anything else she knows.

Ooh, baby, baby.
Won'tcha turn your head my way?
Ooh, baby, baby.
Well, don't skip romance, 'cause you're old enough to dance
the night away.
Oh, come on, baby, dance the night away.

Solo

Dance the night away.
Dance, dance, dance the night away.
(repeat and fade)
Comments