Van Halen - Beautiful Girls Chords & Tabs

 

Beautiful Girls Chords & Tabs

Van Halen Chords & Tabs

Version: 3 Type: Tab 0 ratings
1 star 2 stars 3 stars 4 stars 5 stars
comments

Beautiful Girls Tab

   
-------------------------------------------------------------------------------
			     BEAUTIFUL GRILS - Van Halen
-------------------------------------------------------------------------------
Tabbed by: Blake Schaff	
Email: schaffb@gmail.com

It's the basic idea of the song with out all the little licks hear and there.

Tuning: Eb-Ab-Db-Gb-Bb-Eb (Half Step Down)
  
Intro:
eb|------------------------------------------|
Bb|------------------------------------------|
Gb|---------2---2----------------------------|
Db|-0-2-3-4-2---2---0---x-7-x-8-9------------| x3
Ab|-----------------0h2-x-5-x-6-7------------|
Eb|-----------2---3--------------------------|

eb|------------------------------------------|
Bb|-*7p5---5---------------------------------|
Gb|--x---6----0-2-3-4-2---2------------------|
Db|--x----------------2---2---0---x-7-x-6-4--| x1
Ab|---------------------------0h2-x-5-x-4-2--|
Eb|---------------------2---3----------------|


Verse:
eb|------------------------------------------|
Bb|------------------------------------------|
Gb|------------------------------------------|
Db|---2--4--4--4-4-2--2-2--------------------| x8
Ab|---2--2--5--5-5-4--2-2--------------------|
Eb|-0----------------------------------------|

[ Tab from: http://www.guitartabs.cc/tabs/v/van_halen/beautiful_girls_tab_ver_3.html ]
Bridge:
eb|------------------------------------------|
Bb|------------------------------------------|
Gb|------------------------------------------|
Db|-----------2---2---2------------2---2---2-| 
Ab|-3p2p0-----0---0---0--3p2p0-----0---0---0-| 
Eb|-------3-2---2---2----------3-2---2---2---|
            |---------|        |-----------|
             Palm Mute           Palm Mute
eb|------------------------------------------|
Bb|------------------------------------------|
Gb|------------------------------------------|
Db|-3p2p0-----4---4---4--3p2p0----4---4---4--|
Ab|-------3-2-2-2-2-2-2-------3-2-2-2-2-2-2--|
Eb|------------------------------------------|
            |---------|         |---------|
             Palm Mute           Palm Mute


Verse: x4


Chours:      
eb|------------------------------------------|
Bb|------------------------------------------|
Gb|---------------2--4--5--5/7---------------|
Db|-2--4--5-(5)\--2--4--5--5/7---------------| x2
Ab|-2--4--5-(5)\-----------------------------|
Eb|------------------------------------------|

Verse: x8

Bridge: x1

Chours: x1

Solo: x1 (not shown)

Intro: x1

Verse: x8

Chours: x1




| /  slide up
| \  slide down
| h  hammer-on
| p  pull-off
| ~  vibrato
| +  harmonic
| *  pinch harmonic
| x  Mute note
===============================================================================
Comments