Van Halen - Atomic Punk Chords & Tabs

 

Atomic Punk Chords & Tabs

Van Halen Chords & Tabs

Version: 3 Type: Tab 0 ratings
1 star 2 stars 3 stars 4 stars 5 stars
comments

Atomic Punk Tab

Atomic Punk Tab by Van Halen, www.Ultimate-Guitar.Com

Tuning: Standard

Heres the solo i promised to transcribe

Solo

-12---------12---------12-------12--15---15--14--12--|
-----15~~~------15~~~-------15-----------//--//--//--|
-----------------------------------------//--//--//--|
-----------------------------------------------------|
-----------------------------------------------------|
-----------------------------------------------------|

-------12-------------------------------------------------------|
-15~~------15~~-12-15p12-----12--------15p12-----12-------------|
-------------------------15-----15p14--------15-----15p14-12-/--|
----------------------------------------------------------------|
----------------------------------------------------------------|
----------------------------------------------------------------|

--------17------------17--------17---------17----17----17----17----|
-0-20~~----17-20~~~------20~~~-----20~~~------20----20----20----20-|
-------------------------------------------------------------------|
-------------------------------------------------------------------|
-------------------------------------------------------------------|
-------------------------------------------------------------------|
[ Tab from: http://www.guitartabs.cc/tabs/v/van_halen/atomic_punk_tab_ver_3.html ]
-17-------------------------19------------------------------|
----20---17--\----------17------15-17-----15----------------|
--------------------/18----------------14-----12-14---------|
------------------x----------------------------------12-14--|
-----------------x------------------------------------------|
----------------x-------------------------------------------|

------------------------------------------------------12-----|
---------------------------------9---9-9-9---p7-9-\14----17--|
-------------------------------------------------------------|
-------------------------------------------------------------|
-10-12-9-10-7-9--5-7-4-5-2\10-/------------------------------|
-------------------------------------------------------------|

-15-----15-------------------------------------------------------|
----17-----15-p12------12----------------------------------------|
--------------------14----12~~~----------------------------------|
-----------------------------------------------------------------|
--------------------------------------------5-5-5-6--7-7-7-8-8-8-|
---------------------------------15/--7-7-7----------------------|

------------------------------------------------------------------|
------------------------------------------------------------------|
---------------------------------6-6-6-7-7-7--8-8-8-9-9-9~~~--9~~-|
-------6-6-6-7-7-7--8-8-8-9-9-9-----------------------------------|
-9-9-9------------------------------------------------------------|
------------------------------------------------------------------|

-----------------------------------------------|
-------------7---------------------------------|
-11--~~~-/-----7---9-7-------------------------|
-----------------9----------4-4---4----4----4--|
----------------------------2-2---2----2----2--|
------------------------10/--------------------|

Notation used:
p-pull off
h-hammer on
//-tremelo pick
/-slide down
~-vibrato
xx-rake
Comments