Van Halen - Ain't Talkin' 'bout Love Chords & Tabs

 

Ain't Talkin' 'bout Love Chords & Tabs

Van Halen Chords & Tabs

Version: 2 Type: Bass Tab 0 ratings
1 star 2 stars 3 stars 4 stars 5 stars
comments

Ain't Talkin' 'bout Love Bass Tab

-------------------------------------------------------------------------------
			     AIN'T TALKIN' 'BOUT LOVE - Van Halen
-------------------------------------------------------------------------------
Tabbed by:AXE545
Email:Fireballc2000@aol.com

Tuning:Standard

G|----------------------------------------------|
D|---------------2--3--------5---0--------------|  Intro: 4x
A|---0--0--3--0--------3--0------------3--2--3--|
E|----------------------------------3-----------|
[ Tab from: http://www.guitartabs.cc/tabs/v/van_halen/aint_talkin_bout_love_btab_ver_2.html ]
G|------------------------------------|
D|---------------3-----5--------------|   Verse: 4x
A|---0--0--3--0-----3---------3--2--3-|
E|-------------------------3----------|

G|------------------------|
D|------------------------|   Chorus: 4x
A|---0--0---------3--2--3-|
E|---------3---3----------|

G|-----------------3-----5------------------|
D|---0---0---3--0-----3-----5---------------|   Verse 2: 4x
A|-----------------------------3-----3--2h3-|
E|--------------------------------3---------|

!!NOTE!!:This is a variation on the lead guitar playing.
Comments