Van Halen - 316 Chords & Tabs

 

316 Chords & Tabs

Van Halen Chords & Tabs

Version: 1 Type: Tab 0 ratings
1 star 2 stars 3 stars 4 stars 5 stars
comments

316 Tab

----------------------------------------------------------------------
-------------2----3----3--5----2--------------2---3-----2-----0----------------
---------2--------2----2--4----2----------2-------2-----2-----1-----------------
-----2------------4----4--6----2-------2----------4-----2-----2----------------
--0---------------------------------0-----------------------------------
----------------------------------------------------------------------
[ Tab from: http://www.guitartabs.cc/tabs/v/van_halen/316_tab.html ]
----------------------------------------------------------------------
--------------0----0---------2-------------------------------------------
---------1---------1---------1------------2--------------------------------
-----2-------------2---------2---------0----------------------------------
--0---------------------0-----------------------------------------------
-----------------------------------2-----------2-----------------------

----------------------------------------------------------------------
----------------------------------------------------------------------
------0--0--------------5---5---------------5---5-------------2--------------
------2--2--------------4---4---------------3---3-------------2--------------
--0---------0--0---0------------0---0---0-----------0--3--3---------------------
----------------------------------------------------------------------
Comments