Van Halen - 316 Live Chords & Tabs

 

316 Live Chords & Tabs

Van Halen Chords & Tabs

Version: 1 Type: Tab 1 rating
1 star 2 stars 3 stars 4 stars 5 stars
comments

316 Live Tab

   
Van Halen
316 Live           
    A         D    E A               D    E A

    Gtr I
|-----------|----------------------|----------------------|
|---------2-|-3--3s5-2-(2)-------2-|-3--3s5-2-(2)-------2-|
|-------2---|-2--2s4-2-(2)-----2---|-2--2s4-2-(2)-----2---|
|-----2-----|-4--4s6-2-(2)---2-----|-4--4s6-2-(2)---2-----|
|---0-------|--------------0-------|--------------0-------|
|-----------|----------------------|----------------------|


  D    E A               D  A E/A                C#D/F#
|----------------------|--------------------|---------------------|
|-3--3s5-2-(2)-------2-|-3--2-0-(0)-------0-|-0--2----------------|
|-2--2s4-2-(2)-----2---|-2--2-1-(1)-----1---|-1--1-2-(2)-----2----|
|-4--4s6-2-(2)---2-----|-4--2-2-(2)---2-----|-2--2-0-(0)---0------|
|--------------0-------|------0-(0)-0-------|---------------------|
|----------------------|--------------------|------2-(2)-2-----2--|


              A
|-------------------|--------------|
|-------------------|------------2-|
|-------0-----2-----|----------2---|
|-----0-------2-----|--------2-----|
|-------------0-----|------0-------|
|-2s3-----2-0-------|--------------|


  D    E A               D  A E/A
|----------------------|---------------------|
|-3--3s5-2-(2)-------2-|-3--2-0-(0)-------0--|
|-2--2s4-2-(2)-----2---|-2--2-1-(1)-----1----|
|-4--4s6-2-(2)---2-----|-4--2-2-(2)---2------|
|--------------0-------|------0-(0)-0--------|
|----------------------|---------------------|


      C#m D/F#              G5        A            D    E A
|-----------------------|------------------------|----------------------|
|-0---2-----------------|----------------------2-|-3--3s5-2-(2)-------2-|
|-1---1---2-(2)-----2---|-------0-----2------2---|-2--2s4-2-(2)-----2---|
|-2---2---0-(0)---0-----|-----0-------2----2-----|-4--4s6-2-(2)---2-----|
|---0---0---------------|-------------0--0-------|--------------0-------|
|---------2-(2)-2-----2-|-2s3-----2p0------------|----------------------|


  D A         E/A                 C#D/F#              G5        A
|---------------------------|---------------------|----------------------------|
|-3-2h3p2h3p2-0-(0)-------0-|-0---2---------------|-------------------------2--|
|-2-2---------1-(1)-----1---|-1---1-2-(2)-----2---|-------0-----2-(2)-----2----|
|-4-2h4p2h4p2-2-(2)---2-----|-2---2-0-(0)---0-----|-----0-------2-(2)---2------|
|-------------0-(0)-0-------|---0-----------------|-------------0-(0)-0--------|
|---------------------------|-------2-(2)-2-----2-|-2-3-----2p0----------------|


  D    E A               D A         E/A                 C#D/F#
|----------------------|---------------------------|----------------------|
|-3--3s5-2-(2)-------2-|-3-2h3p2h3p2-0-(0)-------0-|-0---2----------------|
|-2--2s4-2-(2)-----2---|-2-2---------1-(1)-----1---|-1---1-2-(2)-----2----|
|-4--4s6-2-(2)---2-----|-4-2h4p2h4p2-2-(2)---2-----|-2---2-0-(0)---0------|
|--------------0-------|-------------0-(0)-0-------|---0------------------|
|----------------------|---------------------------|-------2-(2)-2-----2--|


    G5        A    N.C.
                     ~~~~~~~~           ~~~~~~~~           ~
|----------------------|------------------|------------------|
|----------------------|------------------|------------------|
|-------0-----2----5-5-|-(5)--------5---5-|-(5)--------5---5-|
|-----0-------2----4-4-|-(4)--------3---3-|-(3)--------4---4-|
|-------------0--0-----|--------0-0---0---|--------0-0---0---|
|-2-3-----2p0----------|------------------|------------------|


                                    A                D    E A
   ~~~           ~~~~~~~~
|------------------|-------------------------------|----------------------|
|------------------|-----------------------------2-|-3--3s5-2-(2)-------2-|
|-(5)--------5---5-|-(5)-----------------------2---|-2--2s4-2-(2)-----2---|
|-(4)--------3---3-|-(3)------------2--(2)---2-----|-4--4s6-2-(2)---2-----|
|--------0-0---0---|-----0-3b3.5==3-0r-(0)-0-------|--------------0-------|
|------------------|-------------------------------|----------------------|


  D A         E/A                 C#D/F#            G5        A    N.C.
                                                                     ~
|---------------------------|---------------------|--------------------|
|-3-2h3p2h3p2-0-(0)-------0-|-0---2---------------|--------------------|
|-2-2---------1-(1)-----1---|-1-----2-(2)-----2---|-----0-----2----5-5-|
|-4-2h4p2h4p2-2-(2)---2-----|-2-----0-(0)---0-----|---0-------2----4-4-|
|-------------0-(0)---------|---0-----------------|-----------0--0-----|
|---------------------------|-------2-(2)-2-----2-|-3-----2p0----------|


   ~~~           ~~~~~~~~           ~~~~~~~~           ~
|------------------|------------------|------------------|
|------------------|------------------|------------------|
|-(5)--------5---5-|-(5)--------5---5-|-(5)--------5---5-|
|-(4)--------3---3-|-(3)--------4---4-|-(4)--------3---3-|
|--------0-0---0---|--------0-0---0---|--------0-0---0---|
|------------------|------------------|------------------|


                         Asus2
               
   ~~~                   T     T     T     T     T     T
|----------------------|-------------------------------0(12)---|------||
|----------------------|-------------------0(12)---------------|------||
|-(5)------------------|-------2(14)-------------2(14)---------|------||
|-(3)---2b2.5--2-------|-------------2(14)---------------------|------||
|-----0-3b3.5==3r-0-0--|-0(12)---------------------------------|------||
|----------------------|---------------------------------------|------||


   N.C.(E5)
   T T  T T  T T  T  T T  T T  T T  T  T  T    T T  T T  T T  T  T T  T T  T T  T  T  T
|-12--------12-----------12--------12-------|-12--------12-----------12--------12-------|
|-12--------12-----------12--------12-------|-12--------12-----------12--------12-------|
|-------------------------------------------|-------------------------------------------|
|----x----x----x-------x----x----x----------|----x----x----x-------x----x----x----------|
|----x----x----x-------x----x----x----------|----x----x----x-------x----x----x----------|
|----x-12-x----x-12-12-x----x-12-x----12-12-|----x-12-x----x-12-12-x----x-12-x----12-12-|


   T T  T T  T T  T  T T  T T  T T  T  T  T
|-12--------12-----------12--------12----------|
|-12--------12-----------12--------12----------|
|----------------------------------------------|
|----x----x----x-------x----x----x-------------|
|----x----x----x-------x----x----x-------------|
|----x-12-x----x-12-12-x----x-12-x----12-12----|


   T T  T T  T T  T                     ~
|-12--------12---------------|-------------|
|-12--------12---------------|-------------|
|----------------------------|-------------|
|----x----x----x-------------|-------------|
|----x----x----x-------------|-------------|
|----x-12-x----x-12p0-(0)----|-------10s3--|


   T T  T T  T T  T  T T  T T  T T  T  T  T
|-12--------12-----------12--------12--------|
|-12--------12-----------12--------12--------|
|--------------------------------------------|
|----x----x----x-------x----x----x-----------|
|----x----x----x-------x----x----x-----------|
|----x-12-x----x-12-12-x----x-12-x----12-12--|


   T T  T T  T T  T  T T  T T
|-12--------12-----------12-----------|
|-12--------12-----------12-----------|
|-------------------------------------|
|----x----x----x-------x----x---------|
|----x----x----x-------x----x---------|
|----x-12-x----x-12-12-x----xp3-(3)/--|


  (A)                     (B)
   T       T       T       T        T        T
|-----------------------------------------------------|
|-----------------------------------------------------|
|-18p9----18p9----18p9----20p11----20p11----20p=11----|
|-----------------------------------------------------|
|------12------12------12-------14-------14--------14-|
|-----------------------------------------------------|


  (C)                        (D)
   T        T        T        T        T
|------------------------------------------------|
|------------------------------------------------|
|-21p12----21p12----21p12----23p14----23p14----0-|
|------------------------------------------------|
|-------15-------15-------15-------17-------17---|
|------------------------------------------------|


  (E5)
   T T  T T  T T  T  T T  T T  T T  T  T  T
|-12--------12-----------12--------12--------|
|-12--------12-----------12--------12--------|
|--------------------------------------------|
|----x----x----x-------x----x----x-----------|
|----x----x----x-------x----x----x-----------|
|----x-12-x----x-12-12-x----x-12-x----12-12--|


   T T  T T  T T  T  T T  T T  T T  T  T  T
|-12--------12-----------12--------12-------|
|-12--------12-----------12--------12-------|
|-------------------------------------------|
|----x----x----x-------x----x----x----------|
|----x----x----x-------x----x----x----------|
|----x-12-x----x-12-12-x----x-12-x----12-12-|


   T T  T T  T T  T  T T  T T  T T  T  T  T
|-12--------12-----------12--------12--------|
|-12--------12-----------12--------12--------|
|--------------------------------------------|
|----x----x----x-------x----x----x-----------|
|----x----x----x-------x----x----x-----------|
|----x-12-x----x-12-12-x----x-12-x----12-12--|


   T T  T T  T T
|-12--------12------------|---------------||
|-12--------12------------|---------------||
|-------------------------|---------------||
|----x----x----x----------|---------------||
|----x----x----x----------|---------------||
|----x-12-x----x-0-0-0----|-------15s7p0h=||


  (E5)               (D5)                 (E5)            (D5)           (E5)
     T      T           T      T             T      T        T      T       T      ~~~~~~~~~~~~~
|---------------------------------------|------------------------------------------------------|
|---------------------------------------|------------------------------------------------------|
|---------------------------------------|------------------------------------------------------|
|---------------------------------------|------------------------------------------------------|
|-7--7(14)--7(12)p=0h5--5(12)--5(10)p=0h|=7--7(14)--0(7)h=5--5(12)p=0(5)-7--7(14)--7(19)--7p=0h|
|-7-------------------------------------|------------------------------------------------------|


                      (D5)             (C)
     T      T            T      T
|-------------------------------------------|
|-------------------------------------------|
|-------------------------------------------|
|-------------------------------------------|
|-7--7(14)--7(12)p=0h=5--5(12)--5(10)p=0h===|
|-------------------------------------------|


  (C)                          (E5)            (D5)
    T     T    ~~~~~~~~~         T     T         T     T
|----------------------------|---------------------------------|
|----------------------------|---------------------------------|
|----------------------------|---------------------------------|
|----------------------------|---------------------------------|
|-3-3(10)-3(8)-3(7)-(3)--3p0h|=7-7(14)-7(12)p0h5-5(12)-5(10)p0-|
|----------------------------|---------------------------------|


  (B5)
    T     T     ~~~~~~~~~~ T
|-----------------------------------|
|-----------------------------------|
|-----------------------------------|
|-----------------------------------|
|-----------------------------------|
|-7-7(14)-7(12)-7(10)-(7)--7(12)p0h=|


  (A)                               (G)
    T     T     ~~~~~~~~~ T           T     T    T               T
|---------------------------------|-------------------------------------|
|---------------------------------|-------------------------------------|
|---------------------------------|-------------------------------------|
|---------------------------------|-------------------------------------|
|---------------------------------|-------------------------------------|
|-5-5(12)-5(10)-5(9)-(5)--5(10)p0-|-3-3(10)-3(8)-3(7)b5==(3)r(3)-3(8)h5-|


  (A)
      T     T     T               T
|-----------------------------------------|
|-----------------------------------------|
|-----------------------------------------|
|-----------------------------------------|
|-----------------------------------------|
|-(5)-5(12)-5(10)-5(9)b7==(5)r(5)-5(10)p0-|


  (C)                                       (D)
    T     T    T    T          T    T         T     T     T               T
|-----------------------------------------|---------------------------------------|
|-----------------------------------------|---------------------------------------|
|-----------------------------------------|---------------------------------------|
|-----------------------------------------|---------------------------------------|
|-3-3(10)-3(8)-3(7)-3(7)b4r(3)-3(8)-3(10)s|=5-5(12)-5(10)-5(9)b7==(5)r(5)-5(10)s3-|
|-----------------------------------------|---------------------------------------|


  (C)
      T     T    T    T          T    T
|--------------------------------------------|
|--------------------------------------------|
|--------------------------------------------|
|--------------------------------------------|
|-(3)-3(10)-3(8)-3(7)-3(7)b4r(3)-3(8)-3(10)s=|
|--------------------------------------------|


  (D)
    T     T     T    T          T     T       T          T     T     T          T     T
|-------------------------------------------|-----------------------------------------------|
|-------------------------------------------|-----------------------------------------------|
|-------------------------------------------|-----------------------------------------------|
|-------------------------------------------|-----------------------------------------------|
|-5-5(12)-5(10)-5(9)-5(9)b6r(5)-5(10)-5(12)-|-5(9)b6r(5)-5(10)-5(12)-5(9)b6r(5)-5(10)-5(12)s|
|-------------------------------------------|-----------------------------------------------|


  (E)
    T     T     T     T     T     T     T
|---------------------------------------------|
|---------------------------------------------|
|---------------------------------------------|
|---------------------------------------------|
|-7-7(14)-7(12)-7(11)-7(10)-7(11)-7(12)-7(14)-|
|---------------------------------------------|


  T           T           T           T             T           T           T           T
|-------------------------------------------------|-------------------------------------------------|
|-------------------------------------------------|-------------------------------------------------|
|-------------------------------------------------|-------------------------------------------------|
|-------------------------------------------------|-------------------------------------------------|
|-7(12)b8r(7)-7(12)b9r(7)-7(14)b8r(7)-7(12)b9r(7)-|-7(14)b9r(7)-7(12)b9r(7)-7(11)b8r(7)-7(12)b9r(7)-|
|-------------------------------------------------|-------------------------------------------------|


  T           T            T       T             T
|------------------------------------------------------|
|------------------------------------------------------|
|------------------------------------------------------|
|------------------------------------------------------|
|-7(14)b9r(7)-7(19)b10r(7)-7(19)b9-7(19)b11==(7)r7(19)-|
|------------------------------------------------------|


                                                     (G)           (C)
                      
   ~~~                        T      T      T      T      T
|-------------------||---------------------------------------|
|-------------------||---------------------------------------|
|-------------------||-----------------------------------12p=|
|-------------------||---------------------12p5h9-12p5h9-----|
|-(7)---------/10\--||-3h5h9-12p5h9-12p5h9-------------------|
|--------------/8S3-||---------------------------------------|


                                                       (Em)
 4/4
       T      T      T      T      T      T      T      T
|---------------------------------------------------------|
|---------------------------------------------------------|
|-5h9-12p5h9-12p5h9-12p5h9-12p5h9-12p5h9-12p5h9-12p5h9-12-|
|---------------------------------------------------------|
|---------------------------------------------------------|
|---------------------------------------------------------|


 3/4
       T      T      T      T      T      T
|---------------------------------------------|
|---------------------------------------------|
|-4h9-12p4h9-12p4h9-12p4h9-12p4h9-12p4h9-12p==|
|---------------------------------------------|
|---------------------------------------------|
|---------------------------------------------|


  (Bsus4)                                                            (B)
 
       T      T      T      T      T      T      T      T      T      T
|-----------------------------------------------------------------------|
|-----------------------------------------------------------------------|
|-4h9-11p4h9-11p4h9-11p4h9-11p4h9-11p4h9-11p4h9-11p4h9-11p4h9-11p4h9-11p|
|-----------------------------------------------------------------------|
|-----------------------------------------------------------------------|
|-----------------------------------------------------------------------|


        T      T      T      T      T      T      T      T
|----------------------------------------------------------|
|----------------------------------------------------------|
|-4h8-11p4h8-11p4h8-11p4h8-11p4h8-11p4h8-11p4h8-11p4h8-----|
|----------------------------------------------------------|
|------------------------------------------------------10p=|
|----------------------------------------------------------|


             (F+)          (Bb+)
                            
       T      T      T      T        T      T      T
|-----------------------------|-----------------------|
|-----------------------------|-----------------------|
|--------------------------11p|=3h7-11p3h7-11p3h7-11p=|
|------------11p3h7-11p3h7----|-----------------------|
|-3h7-10p3h7------------------|-----------------------|
|-----------------------------|-----------------------|


  (Bb)
 
       T      T      T      T     T      T      T      T
|--------------------------------------------------------|
|--------------------------------------------------------|
|-3h7-10p3h7-10p3h7-10p3h7-10p3h7-9p3h7-10p3h7-12p3h7-10p|
|--------------------------------------------------------|
|--------------------------------------------------------|
|--------------------------------------------------------|


                                     (Asus4)
 5/8
       T         T      T      T     T
|---------------------------------------|
|---------------------------------------|
|-3h7-10s12p3h7-13p3h7-12p3h7-10p3h7-9p=|
|---------------------------------------|
|---------------------------------------|
|---------------------------------------|


                                                (A)
 4/4
      T     T     T     T     T     T     T     T
|-------------------------------------------------|
|-------------------------------------------------|
|-2h7-9p2h7-9p2h7-9p2h7-9p2h7-9p2h7-9p2h7-9p2h7-9p|
|-------------------------------------------------|
|-------------------------------------------------|
|-------------------------------------------------|


      T     T     T     T     T     T     T        T
|-------------------------------------------------------|
|-------------------------------------------------------|
|-2h6-9p2h6-9p2h6-9p2h6-9p2h6-9p2h6-9p2h6-9p2-----------|
|---------------------------------------------8s7-------|
|-------------------------------------------------------|
|-------------------------------------------------12p===|


             (D)           (G)
 2/4
       T      T      T      T
|-----------------------------|
|-----------------------------|
|-----------------------------|
|--------------------------12p|
|------------12p5h9-12p5h9----|
|-5h9-12p5h9------------------|


 4/4
       T      T      T     T  T      T      T      T
|------------------------------------------------------|
|------------------------------------------------------|
|------------------------------------------------------|
|-5h9-12p5h9-12p5h9-12p5h9p5-11p5h9-12p5h9-14p5h9-12p==|
|------------------------------------------------------|
|------------------------------------------------------|


                                      (F#sus4)
 
       T         T      T         T      T
|------------------------------------------|
|------------------------------------------|
|------------------------------------------|
|-5h9-12h14p5h9-15p5h9-12h14p5h9-12p5h9-11p|
|------------------------------------------|
|------------------------------------------|


                                                  (F#)
                                  T      T      T      T        T      T      T
|-----------------------------|-----------------------|
|-----------------------------|-----------------------|
|-----------------------------|-----------------------|
|-4h9-11p4h9-11p4h9-11p4h9-11p|=4h9-11p4h9-11p4h9-11p=|
|-----------------------------|-----------------------|
|-----------------------------|-----------------------|


                                         (D)
 
       T      T      T      T      T      T
|-------------------------------------------|
|-------------------------------------------|
|-------------------------------------------|
|-4h8-11p4h8-11p4h8-11p4h8-11p4h8-11p4h8----|
|----------------------------------------12p|
|-------------------------------------------|


                                         (F#m)
       T      T      T      T      T      T
|--------------------------------------------|
|--------------------------------------------|
|--------------------------------------------|
|--------------------------------------------|
|-5h9-12p5h9-12p5h9-12p5h9-12p5h9-12p5h9-12p=|
|--------------------------------------------|


                                         (C)
       T      T      T      T      T      T
|-------------------------------------------|
|-------------------------------------------|
|-------------------------------------------|
|-------------------------------------------|
|-4h9-12p4h9-12p4h9-12p4h9-12p4h9-12p4h8-10p|
|-------------------------------------------|


                                         (Em)
       T      T      T      T      T      T
|----------------------------------------------|
|----------------------------------------------|
|----------------------------------------------|
|----------------------------------------------|
|-3h7-10p3h7-10p3h7-10p3h7-10p3h7-10p3h7-10p===|
|----------------------------------------------|


        T      T      T      T      T
|------------------------------------|
|------------------------------------|
|------------------------------------|
|------------------------------------|
|-2h7-10p2h7-10p2h7-10p2h7-10p2h7-10p|
|------------------------------------|


  (Bsus4)
 
      T     T     T     T     T     T     T     T     T     T
|---------------------------------------------------------------|
|---------------------------------------------------------------|
|---------------------------------------------------------------|
|---------------------------------------------------------------|
|-2h7-9p2h7-9p2h7-9p2h7-9p2h7-9p2h7-9p2h7-9p2h7-9p2h7-9p2h7-9p==|
|---------------------------------------------------------------|


                  (B)
 
      T     T     T
|-------------------|
|-------------------|
|-------------------|
|-------------------|
|-2h7-9p2h7-9p2h7-9p|
|-------------------|


 
      T     T     T     T     T     T     T     T     T     T     T
|-------------------------------------------------------------------------|
|-------------------------------------------------------------------------|
|-------------------------------------------------------------------------|
|-------------------------------------------------------------------------|
|-2h6-9p2h6-9p2h6-9p2h6-9p2h6-9p2h6-9p2h6-9p2h6-9p2h6-9p2h6-9p2---9p2h6---|
|---------------------------------------------------------------6---------|


  Slower Q=108
  (b7)
   T           T           T           T
|-------------------------------------------------|
|-------------------------------------------------|
|-------------------------------------------------|
|-------------------------------------------------|
|-9p6p2p0h2h6-9p6p2p0h2h6-9p6p2p0h2h6-9p6p2p0h2h6-|
|-------------------------------------------------|


  T           T           T           T
|-------------------------------------------------|
|-------------------------------------------------|
|-------------------------------------------------|
|-------------------------------------------------|
|-9p6p2p0h2h6-9p6p2p0h2h6-9p6p2p0h2h6-9p6p2p0h2h6-|
|-------------------------------------------------|


  T           T           T           T
|-------------------------------------------------|
|-------------------------------------------------|
|-------------------------------------------------|
|-------------------------------------------------|
|-9p6p2p0h2h6-9p6p2p0h2h6-9p6p2p0h2h6-9p6p2p0h2h6-|
|-------------------------------------------------|


  T           T           T           T
|--------------------------------------------------|
|--------------------------------------------------|
|--------------------------------------------------|
|--------------------------------------------------|
|-9p6p2p0h2h6-9p6p2p0h2h6-9p6p2p0h2h6-9p6p2p0h2h6--|
|--------------------------------------------------|


  T           T           T           T
|-------------------------------------------------|
|-------------------------------------------------|
|-------------------------------------------------|
|-------------------------------------------------|
|-9p6p2p0h2h6-9p6p2p0h2h6-9p6p2p0h2h6-9p6p2p0h2h6-|
|-------------------------------------------------|


  T           T           T           T
|--------------------------------------------------|
|--------------------------------------------------|
|--------------------------------------------------|
|--------------------------------------------------|
|-9p6p2p0h2h6-9p6p2p0h2h6-9p6p2p0h2h6-9p6p2p0h2h6--|
|--------------------------------------------------|


                       
  T           T             T                    T      T      T      T
|-------------------------|---------------|----------------------------------|
|-------------------------|---------------|----------------------------------|
|-------------------------|---------------|----------------------------------|
|-------------------------|---------------|--------------------2(14)--2(14)--|
|-9p6p2p0h2h6-9p6p2p0h2h6-|-9p2h6p0-------|------2(14)--2(14)----------------|
|-------------------------|---------3p2---|-0--------------------------------|


  T     T     T     T     T
|-------------------------0(12)----|---||
|-------------0(12)-0(12)----------|---||
|-2(14)-2(14)----------------------|---||
|----------------------------------|---||
|----------------------------------|---||
|----------------------------------|---||


 Free Time
  Cmaj7/G     Fmaj7/C     Cmaj7       Bsus4
                         3/4
                                                \1____
|-^0--------:-^0--------:-------^0--:-0--------------|
|-^0--------:-^1--------:-^0----^0--:-0--------------|
|-^0--------:-^2--------:-^0----^0--:-4--------------|
|-^2--------:-^3--------:-^2----^5--:-4----(4)-------|
|-^3--------:-^3--------:-^3----^5--:-2----(2)-(2)---|
|-^3--------:-----------:-^3----^3--:----------------|


 
  \3.5___\3.5___\3.5___\3.5____
:-----------------------------:
:-----------------------------:
:-----------------------------:
:-x------x------x------x------:
:-x------x------x------x------:
:-x------x------x------x------:


                                 Cmaj7/G     Fmaj7/C
  /1____\3__/1____\7____/
|------------------------------:-^0--------|-^0----|
|------------------------------:-^0--------|-^1----|
|-----------5----(5)---(5)-(5)-:-^0--------|-^2----|
|-x----------------------------:-^2--------|-^3----|
|-x----------------------------:-^3--------|-^3----|
|-x---5s8----------------------:-^3--------|-------|


  Cmaj7/C5        E5      C5  B5C5  B5
|---------------:-----------------:------|
|-^0------------:-----------------:------|
|-^0----5---(5)S:=9---(9)S5---4S5-:-4----|
|-^2----5---(5)S:=9---(9)S5---4S5-:-4----|
|-^3----3---(3)S:=7---(7)S3---2S3-:-2----|
|-^3------------:-----------------:------|


    N.C.
                               ~~~~~~~~~~~~~~~~
|--------------------------------------------:
|--------------------------------------------:
|-4s0-----(0)-[5]--(5)-2b4==(2)r(2)-(2)-(2)--:
|--------------------------------------------:
|--------------------------------------------:
|--------------------------------------------:


                                                                       ~~~~~~~~
|------------------------------------------:------------------------|
|------------------------------------------:------------------------|
|-0---(0)----[5]--(5)----(5)-(5)---5-(5)-5-:-(5)--------------------|
|--------------------------------5---------:------------------------|
|------------------------------------------:------------------------|
|------------------------------------------:-------3s====[0]-(0)----|


 
  
|-------x-----------x-----------x-----------x-----------x-----------x-----------------------:
|-------------------------------------------------------------------------------------------:
|-------------------------------------------------------------------------------------------:
|-x-----------x-----------x-----------x-----------x-----------x-----------x-----x-x---------:
|-x-----------x-----------x-----------x-----------x-----------x-----------x-----x-x---------:
|-x-----------x-----------x-----------x-----------x-----------x-----------x-----x-xs3s15s17-:


 
      ~~~~~                ~~~~~
|-------------------------------|
|-------------------------------|
|-------------------[5]--([5])--|
|-----------------5-------------|
|----22b25----------------------|
|-22-22b25--(22)\---------------|


 
    ~~~~~              T
|------------------------:
|------------------------:
|-([5])------------------:
|-------x--------------x-:
|-------x--------------x-:
|-------x--15s12p0-x-x-x-:


 
                          /
  T T T T T T T T T T T T       T       T T T T T T T T T
|-------------------------------------0-x-x-x-x-x-x-x-----|
|-------------------------------------0-x-x-x-x-x-x-x-----|
|-----------------------------------------------------x-x-|
|-x-x-x-x-x-x-x-x-x-x-x-x---------------------------------|
|-x-x-x-x-x-x-x-x-x-x-x-x-0-----0(24)---------------------|
|-x-x-x-x-x-x-x-x-x-x-x-x---------------------------------|


                                                                         <  <  <  <  <  <  <  <
  T T T T T T T T T T T T
|----------------------------------||-------------------------|
|----------------------------------||----------4--------------|
|-x-x-x-x-x-x-x-x-x-x-x-x----------||-------4-----4-----------|
|----------------------------x/----||----4-----------4--------|
|----------------------------------||-2-----------------2--4--|
|-------------------------x/-------||-------------------------|


  (Eb)              (G)                       (B)
  < < < < < < < <    <  <  <  <  <  <  <  <    <  <  <  <  <  <  <  <
|-----------------|-------------------------|-------------------------|
|-------8---------|----------12-------------|----------16-------------|
|-----8---8-------|-------12----12----------|-------16----16----------|
|---8-------8-----|----12----------12-------|----16----------16-------|
|-6-----------6-8-|-10----------------10-13-|-14----------------14-12-|
|-----------------|-------------------------|-------------------------|


  (G)                 (D)           (F)
 3/4
   <  <  <  <  <  <   < < < < < <   <  <  <  <  <  <
|-------------------|-------------|------------------|
|----------12-------|-------7-----|---------10-------|
|-------12----12----|-----7---7---|------10----10----|
|----12----------12-|---7-------7-|---10----------10-|
|-10----------------|-5-----------|-8----------------|
|-------------------|-------------|------------------|


  (C)           (Eb)          (Bb)
  < < < < < <   < < < < < <   < < < < < <
|-------------|-------------|-------------|
|-------5-----|-------8-----|-------3-----|
|-----5---5---|-----8---8---|-----3---3---|
|---5-------5-|---8-------8-|---3-------3-|
|-3-----------|-6-----------|-1-----------|
|-------------|-------------|-------------|


  (Db)          (Eb)          (G)
  < < < < < <   < < < < < <    <  <  <  <  <  <
|-------------|-------------|-------------------|
|-------6-----|-------8-----|----------12-------|
|-----6---6---|-----8---8---|-------12----12----|
|---6-------6-|---8-------8-|----12----------12-|
|-4-----------|-6-----------|-10----------------|
|-------------|-------------|-------------------|


                      (Bb)                (Db)
   <  <  <  <  <  <    <  <  <  <  <  <    <  <  <  <  <  <
|-------------------|-------------------|-------------------|
|-12-------12-------|----------15-------|----------18-------|
|----12-------12----|-------15----15----|-------18----18----|
|-------12-------12-|----15----------15-|----18----------18-|
|-------------------|-13----------------|-16----------------|
|-------------------|-------------------|-------------------|


  (G)                 (Eb)                (E)
   <  <  <  <  <  <    <  <  <  <  <  <   < < < < < <
|-------------------|-------------------|-------------|
|----------12-------|----------15-------|-------9-----|
|-------12----12----|-------15----15----|-----9---9---|
|----12----------12-|----15----------15-|---9-------9-|
|-10----------------|-13----------------|-7-----------|
|-------------------|-------------------|-------------|


  (G)                 (Db)
   <  <  <  <  <  <   < < < < < <   < < < < < <
|-------------------|-------------|-------------|
|----------12-------|-------6-----|-6-----6-----|
|-------12----12----|-----6---6---|---6-----6---|
|----12----------12-|---6-------6-|-----6-----6-|
|-10----------------|-4-----------|-------------|
|-------------------|-------------|-------------|


  (Eb)                        (F)
  < < < < < <   < < < < < <   <  <  <  <  <  <
|-------------|-------------|------------------|
|-------8-----|-8-----8-----|---------10-------|
|-----8---8---|---8-----8---|------10----10----|
|---8-------8-|-----8-----8-|---10----------10-|
|-6-----------|-------------|-8----------------|
|-------------|-------------|------------------|


  (G)                 (A)                 (Bb)
   <  <  <  <  <  <    <  <  <  <  <  <    <  <  <  <  <  <
|-------------------|-------------------|-------------------|
|----------12-------|----------14-------|----------15-------|
|-------12----12----|-------14----14----|-------15----15----|
|----12----------12-|----14----------14-|----15----------15-|
|-10----------------|-12----------------|-13----------------|
|-------------------|-------------------|-------------------|


  (C)                                     (D)
   <  <  <  <  <  <    <  <  <  <  <  <    <  <  <  <  <  <
|-------------------|-------------------|-------------------|
|----------17-------|-17-------17-------|----------19-------|
|-------17----17----|----17-------17----|-------19----19----|
|----17----------17-|-------17-------17-|----19----------19-|
|-15----------------|-------------------|-17----------------|
|-------------------|-------------------|-------------------|


   <  <  <  <  <  <    <  <  <  <  <  <    <  <  <  <  <  <
|-------------------|-------------------|-------------------|
|-19-------19-------|-19-------19-------|-19-------19-------|
|----19-------19----|----19-------19----|----19-------------|
|-------19-------19-|-------19-------19-|-------19----19-19-|
|-------------------|-------------------|-------------------|
|-------------------|-------------------|-------------------|


   <  <  <  <  <  <    <  <  <  <  <  <
|-------------------|-------------------|
|-19-------19-------|-19-------19-------|
|----19-------19----|----19-------19----|
|-------19-------19-|-------19-------19-|
|-------------------|-------------------|
|-------------------|-------------------|


   <  <  <  <  <  <    <  <  <  <  <  <
|-------------------|-------------------|
|-19-------19-------|----------21-------|
|----19-------19----|-------21----21----|
|-------19-------19-|----21----------21-|
|-------------------|-19----------------|
|-------------------|-------------------|


   <  <  <  <  <  <    <  <  <  <  <  <    <  <  <  <  <  <
|-------------------|-------------------|-------------------|
|-21-------21-------|-21-------21-------|-21----------------|
|----21-------21----|----21-------21----|----21----21-21----|
|-------21-------21-|-------21-------21-|-------21-------21-|
|-------------------|-------------------|-------------------|
|-------------------|-------------------|-------------------|


 4/4
   <  <  <  <  <  <  <  <    <  <  <  <  <  <  <  <    <  < <  < < < < <
|-------------------------|-------------------------|---------------------|
|-------------------------|-------------------------|---------------------|
|-------------------------|-------------------------|---------------------|
|-------------------------|-------------------------|---------------------|
|-19-21-17-19-15-17-14-15-|-17-14-15-12-14-10-12-14-|-10-12-9-10-7-9-5-7--|
|-------------------------|-------------------------|---------------------|


  < < < < < < < <   < < < <  < < < <   < < < < < < < <
|-----------------|------------------|-----------------|
|-----------------|------------------|-----------------|
|-----------------|-----7------------|-----------------|
|-----------------|-------7----------|-----------------|
|-3-5-2-3---------|-7-5-----10-9-7-5-|-7-5-7-5---------|
|---------3-2-0-0-|------------------|---------3-2-0-0-|


  < < < <  < < < <   < < < < < < < <   < < < < < < < <
|------------------|-----------------|-----------------|
|------------------|-----------------|-----------------|
|-----7------------|-----------------|-----------------|
|-------7----------|-----------------|-----------------|
|-7-5-----10-9-7-5-|-7-9-5-7-7-5-7-5-|-7-5-7-5-7-5-7-5-|
|------------------|-----------------|-----------------|


  < < < < < < < <   < < < < < < < <   < < < < < < <     <
|-----------------|-----------------|----------------|--------||
|-----------------|-----------------|----------------|--------||
|-----------------|-----------------|----------------|--------||
|-----------------|-----------------|----------------|--------||
|-7-5-7-5-7-5-7-5-|-7-5-7-5-7-5-7-5-|-7-5-7-5-7-5-7--|-(7)----||
|-----------------|-----------------|----------------|--------||

[ Tab from: http://www.guitartabs.cc/tabs/v/van_halen/316_live_tab.html ]
  Free Time Q=84
           \1/ \1/ \1/   \1.5_______\2.5________\3.5/ \3.5/ /3.5___
|----------------------:------------------------------------------:
|----------------------:------------------------------------------:
|----------------------:------------------------------------------:
|----------------------:------------------------------------------:
|----------------------:------------------------------------------:
|-xs0----0-0---0---0---:-0-----0----7s====12-0-[0]----0-----0-----:


         \1_____/1.5___\4.5______/1_________
|------------------------------------------|
|------------------------------------------|
|--------------/5-----(5)----(5)-5---(5)---|
|------------------------------------------|
|------------------------------------------|
|-(0)----0---0-----------------------------|


   \2           \2     \1/
                                 ~~~~
|-----------------------------------:
|-[0]-(0)------------------[2]b4-2--:
|---------0-[5]-3--(3)-0------------:
|-----------------------------------:
|-----------------------------------:
|-----------------------------------:


    \4____/2.5__\4__/2.5___\4___/2.5___\4___/2.5___\4___/2.5___\4___/2.5____\4____/2.5___
 ~~~~
|---------------------------------------------------------------------------------------|
|---------------------------------------------------------------------------------------|
|---------------------------------------------------------------------------------------|
|-xs0----(0)----xs==0-----(0)--(0)----(0)--(0)----(0)--(0)----(0)--(0)-----(0)---(0)----|
|-xs0----(0)----xs==0-----(0)--(0)----(0)--(0)----(0)--(0)----(0)--(0)-----(0)---(0)----|
|-xs0----(0)----xs==0-----(0)--(0)----(0)--(0)----(0)--(0)----(0)--(0)-----(0)---(0)----|


  /2.5___\4___/2.5___\4___/2.5___\4___/2.5___\4___/2.5___\4___/2.5___\4___/2.5___\4___/2.5___\4___/
|----------------------------------------------------------------------------------------------------|
|----------------------------------------------------------------------------------------------------|
|----------------------------------------------------------------------------------------------------|
|-0-----(0)--(0)----(0)--(0)----(0)--(0)----(0)--(0)----(0)--(0)----(0)--(0)----(0)--(0)----(0)--(0)-|
|-0-----(0)--(0)----(0)--(0)----(0)--(0)----(0)--(0)----(0)--(0)----(0)--(0)----(0)--(0)----(0)--(0)-|
|-0-----(0)--(0)----(0)--(0)----(0)--(0)----(0)--(0)----(0)--(0)----(0)--(0)----(0)--(0)----(0)--(0)-|


|------------------------------------------------------|
|-------------0-3p2p0-2-[2]b4==(2)-(2)r(2)-0-3h4p0-0---|
|---------2s4------------------------------------------|
|------------------------------------------------------|
|------------------------------------------------------|
|-/10s3p0----------------------------------------------|


       \1.5        \4________/
             ~~~
|--------------------------:-------------|
|--------------------------:-------------|
|-5---(5)---(5)---(5)--(5)-:-------------|
|--------------------------:-------------|
|--------------------------:-0-----------|
|--------------------------:----3b4------|


 3/4
|-------------------------:-----x\-------||
|-------------------------:-----x\-------||
|-------------------------:-----x\-------||
|-------------------------:-x\-----------||
|----------------21b24-21-:-x\-----------||
|-21b23==(21)---(21)------:-x\------13s3-||


  A5     N.C.
 4/4
          ~~
|------------|
|------------|
|-2----------|
|-2----------|
|-0------/7--|
|------------|


  PM----|
|-------------------------------------------------------------------------|
|-------------------------------------------------------------------------|
|-----5-7-[7]b8r(7)p5---5b7-(5)-------------------------------------------|
|-5-7-----------------7---------7-[7]p5-5-[7]p5-[5]-----------------------|
|---------------------------------------------------5-3-5b7==(5)r(5)p3----|
|----------------------------------------------------------------------5--|


                                                                                                                 Fa
 5/4
                                                                                       ~~~~~~~~~~~~~~~~
|----------------------------------------------------------------------------------------------------------------||
|----------------------------------------------------------------------17b20r17p14-------------------------------||
|-------------------------------------------------------------------14-17b20r======17-17pb18==(17)b19==(17)r(17)-||
|----------------------------------------------------------/10s5-18----------------------------------------------||
|-[3]b3.5-[3]b3.5-----[3]b3.5-[3]b3.5-----3-3b4==(3)r(3)---------------------------------------------------------||
|-----------------5-3-----------------5-3----------------5-------------------------------------------------------||


 ster Q=132
 1/4
       T
|------------:
|-2s4------8-:
|-----10p5---:
|------------:
|------------:
|------------:


 4/4
   T      T      T      T      T      T      T      T
|-10p5h8--------10p5h8--------10p5h8--------10p5h8--------|
|--------10p5h8--------10p5h8--------10p5h8--------10p5h8-|
|---------------------------------------------------------|
|---------------------------------------------------------|
|---------------------------------------------------------|
|---------------------------------------------------------|


   T      T      T      T      T      T      T      T
|-10p5h8--------10p5h8--------10p5h8------------------------|
|--------10p5h8--------10p5h8--------10p5h8-10p8p5-10p5-10p=|
|-----------------------------------------------------------|
|-----------------------------------------------------------|
|-----------------------------------------------------------|
|-----------------------------------------------------------|


       T    T    T    T               T    T    T
|---------------------------------------------------:
|-8b9-10p5-10p8-10p5-10p8p5-------------------------:
|---------------------------7b9==(7)-10p7-12p7-10p7-:
|---------------------------------------------------:
|---------------------------------------------------:
|---------------------------------------------------:


                              T    T    T    T    T
|----------------------------------------------------:
|----------------------------------------------------:
|-(7)r(7)p5-7b9==(7)r(7)p5-0-------------------------:
|----------------------------------------------------:
|----------------------------12p7-12p6-12p5-12p3-12p=:
|----------------------------------------------------:


 5/8                 3/4
     T      T
|-------------------:-------------------------------|
|-------------------:---------------------5-------5-|
|-------------------:-------------4-4---4---4-4S6---|
|-------------------:-------7-4h5-----7-------------|
|-5-12p3b5-12p5p3-0-:-3s5-5-------------------------|
|-------------------:-------------------------------|


 4/4
|-[5]-5-5h7-8-[8]-8-------10-7-8-10------12p8-:
|-------------------5-5s7-----------8-10------:
|---------------------------------------------:
|---------------------------------------------:
|---------------------------------------------:
|---------------------------------------------:


 3/4
|-8h10h12-------14-10-12-15-(15)-12--:
|---------10-12----------------------:
|------------------------------------:
|------------------------------------:
|------------------------------------:
|------------------------------------:


 4/4
|-12h13p5h12----------12---12-15p13p12h15----------------:
|---------------12-12---------------------13s5-8-6-8p6h8-:
|------------12----------0-------------------------------:
|--------------------------------------------------------:
|--------------------------------------------------------:
|--------------------------------------------------------:


|-5----------------------------------------------------15-15-0--:
|---5--------------------------------------------------15-15----:
|-----8p7p5---7-7-5h7-4-4-4h5p4---4-5-5-4-4h5h7p5-4-4/----------:
|-----------7-------------------7-------------------------------:
|---------------------------------------------------------------:
|---------------------------------------------------------------:


 2/4
|-17-17-20-----------------:
|----------17-17-20-----8/-:
|-------------------19\----:
|--------------------------:
|--------------------------:
|--------------------------:


 5/4
                                      \0.5/        \0.5/     \0.5/
|-------------20-(20)p17p14h20p17p14h20p====17p14h20p====17h20p====17p14----20-------------------:
|-14h17h19-19------------------------------------------------------------19----17p14-18h20p17p14-:
|------------------------------------------------------------------------------------------------:
|------------------------------------------------------------------------------------------------:
|------------------------------------------------------------------------------------------------:
|------------------------------------------------------------------------------------------------:


 4/4
|----------------------------------------------------------------------:
|-18h20-14-20-16h17p16p14-14-14-14-------------------------------------:
|--0-----0-------------------------17-17-17b20==(17)r(17)-(17)------14-:
|--------------------------------------------------------------8s16----:
|----------------------------------------------------------------------:
|----------------------------------------------------------------------:


 3/4
|---------------------------------------------------------:
|-17b19r=(17)b21===(17)r=(17)p14-14-----------------------:
|-----------------------------------17b18==(17)r=(17)p=14-:
|---------------------------------------------------------:
|---------------------------------------------------------:
|---------------------------------------------------------:


|------------------------------------------------------:
|-17b19r==(17)b21====(17)r=(17)p14---------------------:
|----------------------------------14-14-17p14s8h10s19-:
|------------------------------------------------------:
|------------------------------------------------------:
|------------------------------------------------------:


                                ~~~~~~~~~~~~~
|-17-----------------------20-------------------------:
|----17-20b24--(20)--(20)------20b22===(20)r=(20)p17--:
|----------------------------------------------0------:
|----------------------------------------------0------:
|-----------------------------------------------------:
|-----------------------------------------------------:


                                                                          S
 7/8
|-------------------------------------------------------------------------:
|-20b22==(20)r20p17----20b21==(20)r20p17----20b22==(20)r(20)-17-----------:
|-------------------19-------------------19---------------------19h21-19\-:
|-------------------------------------------------------------------------:
|-------------------------------------------------------------------------:
|-------------------------------------------------------------------------:


 lower Q=92
 4/4
                                      ~~~~~
|---------------------------------------------:
|---------------------------------------------:
|-5h7-7p5-------------------------------------:
|---------5h7-7p5-----------------------------:
|-----------------7p6s4-5-3-5-5b7-5-3---------:
|-------------------------------------5-5s10s=:


  Faster Q=132
 3/8                 3/4                              3/8
  ~                          T    T    T    T    T         T    T
|-------------------:--------------------------------:----------------------:
|-------------------:--------------------------------:----------------------:
|----7b8==(7)r(7)p5-:-7b9===12p7-14p7-12p7-14p7-15p7-:-13s14p7-15p7r(7)p5h7-:
|-------------------:--------------------------------:----------------------:
|-------------------:--------------------------------:----------------------:
|-5-----------------:--------------------------------:----------------------:


 4/4                                                    3/8
   T      T      T      T      T          T          T          T        T
|--------10p5h8----------------------------------------:--------------------:
|-10p5h8--------10p5h8-10p8p5--------------------------:--------------------:
|-----------------------------11p7p5p0h7-12p7p5p0h7-12p:=7p5p0--------------:
|------------------------------------------------------:-------12p7p5p0-----:
|------------------------------------------------------:----------------12p=:
|------------------------------------------------------:--------------------:


 3/4                            7/8
     T    T    T    T    T          T    T    T    T    T      T
|------------------------------:-----------------------------------:
|------------------------------:-----------------------------------:
|------------------------------:-----------------------------------:
|------------------------------:-----------------------------------:
|-7-12p6-12p5-12p3-12p5-12p5s3s:=7-12p6-12p5-12p3-12p5-12p6p5-12p3-:
|------------------------------:-----------------------------------:


 3/8              2/4                       4/4
     T    T    T         T    T              ~   T         ~~
|----------------:-------------------------:------------:-------------||
|----------------:-------------------------:------------:-------------||
|----------------:-------------------------:------------:-------------||
|----------------:-------------------------:------------:-------------||
|-7-12p6-12p5-12p:=3b5--12p5-12p3b5r=(3)p0h:=3--12------:-12----------||
|----------------:-------------------------:------------:---------3b4-||


 
  A5 G5       D         Dsus4         D   N.C.
|----3--(3)---2-2-:-2---3-3-3-3-3-3-:-2---------------|
|----3--(3)---3-3-:-3---3-3-3-3-3-3-:-3---------------|
|-2--0--(0)---2-2-:-2---2-2-2-2-2-2-:-2---------------|
|-2--0--(0)---0-0-:-0---0-0-0-0-0-0-:-0---------------|
|-0---------------:-----------------:-----0-3p0h4p0h5-|
|----3--(3)-------:-----------------:-----------------|


   ~~~                                             ~~~~~~~~~~~~~~~~
|------------:----------------------------------:------------:--------|
|------------:----------------------------------:------------:--------|
|------------:----------------------------------:------------:--------|
|------------:-------5-[5]-[5]-[5]-----[5]------:------------:--------|
|-(5)--------:-(5)-----------------[5]-----[5]--:-(5)--------:-(5)----|
|------------:----------------------------------:------------:--------|


                  \1_________/1__\1_____/
   ~~~~~~~~~~          ~~~~~~~~~~                    ~~~~~
|--------------------------:------------------0-0-0------------------|
|--------------------------:------------------0-0-0-15b17---17-12-15-|
|--------------------------:------------------0-0-0------------------|
|--------------------------:-----------------------------------------|
|-(5)----(5)--0--(0)--(0)--:-----------------------------------------|
|--------------------------:-0---0------3s12-------------------------|


  Faster Q=160
 3/4
   T        T        T        T        T        T
|-17p12h15----------17p12h15----------17p12h15----------:
|----------17p12h15----------17p12h15----------17p12h15-:
|-------------------------------------------------------:
|-------------------------------------------------------:
|-------------------------------------------------------:
|-------------------------------------------------------:


 3/8
   T           T        T
|-17s18p12h15-19p12h15----------:
|----------------------17p12h15-:
|-------------------------------:
|-------------------------------:
|-------------------------------:
|-------------------------------:


 5/8
   T        T        T           T           T
|-17p12h15----------17s18p12h15-17s19p12h15----------:
|----------17p12h15-------------------------17p12h15-:
|----------------------------------------------------:
|----------------------------------------------------:
|----------------------------------------------------:
|----------------------------------------------------:


 4/4
   T        T        T           T              T              T        T
|-17p12h15----------17s18p12h15-17s19p12h15p12----------12-15-17p12----19p12h15-|
|----------17p12h15-------------------------------------------------15----------|
|----------------------------------------------16s15s14-------------------------|
|-------------------------------------------------------------------------------|
|-------------------------------------------------------------------------------|
|-------------------------------------------------------------------------------|


 3/8                          5/8
   T        T        T          T        T        T        T     T
|----------------------------:-15p10h13----------15p10h13-17p10-----------|
|-17p12h15-17p11h13-15p10h13-:----------15p10h13----------------15p10h=13-|
|----------------------------:--------------------------------------------|
|----------------------------:--------------------------------------------|
|----------------------------:--------------------------------------------|
|----------------------------:--------------------------------------------|


   T        T        T        T        T
|-15p10h13----------15p10h13-17p10h13-------:
|----------15p10h13-------------------15p10-:
|-------------------------------------------:
|-------------------------------------------:
|-------------------------------------------:
|-------------------------------------------:


 3/4
   T        T        T           T        T        T
|----------------15-------------17p12h15-18p12h15----------:
|-15s17p12-17s18----17s18p12h15-------------------17p12h15-:
|----------------------------------------------------------:
|----------------------------------------------------------:
|----------------------------------------------------------:
|----------------------------------------------------------:


 5/8
   T        T        T        T        T
|-17p12h15----------17p12h15-19p12h15----------:
|----------17p12h15-------------------17p12h15-:
|----------------------------------------------:
|----------------------------------------------:
|----------------------------------------------:
|----------------------------------------------:


   T        T     T        T          T     T
|----------------15p10h13----------x-15p14-15p==:
|-15p10h13-15p13----------15p10h13--------------:
|-----------------------------------------------:
|-----------------------------------------------:
|-----------------------------------------------:
|-----------------------------------------------:


 3/4
      T              T     T           T     T
|-14-15p14p12p10h14-15p14-15p14p12p10-15p14-15p14p12p10-:
|-------------------------------------------------------:
|-------------------------------------------------------:
|-------------------------------------------------------:
|-------------------------------------------------------:
|-------------------------------------------------------:


 3/8
   T                    T
|-14-----------------------:
|----12\-12p8-12s11s10-12p=:
|--------------------------:
|--------------------------:
|--------------------------:
|--------------------------:


 4/4                                        2/4
     T    T     T    T    T    T    T    T        T    T    T        T
|------------------------------------------:----------------------------|
|-7-12p8-12p10-12p8-12p7-12p5-12p7-12p4-12p:=5s6-12p7-12p8-12p8s=10-12p=|
|------------------------------------------:----------------------------|
|------------------------------------------:----------------------------|
|------------------------------------------:----------------------------|
|------------------------------------------:----------------------------|


 4/4
     T    T     T    T    T    T    T    T
|------------------------------------------:
|-7-12p8-12p10-12p8-12p7-12p5-12p7-12p4-12p:
|--------------------------------0---------:
|------------------------------------------:
|------------------------------------------:
|------------------------------------------:


  ~~~~~~~~ T      T       T     T         T
|--------------------------------------------|
|-5---(5)-12p7h8-12p8h10-12p10-12p4s8h10-12p=|
|--------------------------------------------|
|--------------------------------------------|
|--------------------------------------------|
|--------------------------------------------|


       T    T     T    T        T    T    T
|-------------------------------------------:
|-7h8-12p8-12p10-12p8-12p7p0h7-12p7-12p4-12p:
|-------------------------------------------:
|-------------------------------------------:
|-------------------------------------------:
|-------------------------------------------:


 3/8          3/4
  ~~~~~~~~ T      T           T       T    T    T
|---------12p:=5-12p7h8-12p8-12p8s10-12p7-12p8-12p=|
|-5---(5)----:-------------------------------------|
|------------:-------------------------------------|
|------------:-------------------------------------|
|------------:-------------------------------------|
|------------:-------------------------------------|


      T    T    T    T    T    T      T    T    T       T      T       T
|-10-12p8-12p7-12p5-12p7-12p4-12p:=5-12p7-12p7-12p7s10-12p7h8-12p8h10-12p:
|--------------------------------:---------------------------------------:
|--------------------------------:---------------------------------------:
|--------------------------------:---------------------------------------:
|--------------------------------:---------------------------------------:
|--------------------------------:---------------------------------------:


        T    T    T    T    T     T
|-10p8-12p8-12p7-12p5-12p7-12p4--12--|
|------------------------------------|
|------------------------------------|
|------------------------------------|
|------------------------------------|
|------------------------------------|


 4/4
            T      T    T       T      T    T
|-5s7p0--------------------------------------------:
|-------10-12p7h8-12p8-12p8s10-12p7h8-12p8-12p10p8p:
|--------------------------------------------------:
|--------------------------------------------------:
|--------------------------------------------------:
|--------------------------------------------------:


          T              T            T            T
|------------------------------------------------------------|
|-7h8h10-12p10p8p7h8h10-12p10p8p7h10-12p10p8p7h10-12p10p8p===|
|------------------------------------------------------------|
|------------------------------------------------------------|
|------------------------------------------------------------|
|------------------------------------------------------------|


                                         2/4
       T    T    T    T ~~~~~~~~ T    T        T    T           T
|------------------------------------12p:=7h8-12p8-12p8s10p7---12p=:
|-7s6-12p5-12p7-12p4-12p5---(5)-12p3----:--------------------9-----:
|---------------------------------------:--------------------------:
|---------------------------------------:--------------------------:
|---------------------------------------:--------------------------:
|---------------------------------------:--------------------------:


 4/4
               T              T                  T
|-10p8p7h8h10-12p10p8p7h8h10-12p10p8p7h10h12p10-12p10p8p7h10h12p10-:
|------------------------------------------------------------------:
|------------------------------------------------------------------:
|------------------------------------------------------------------:
|------------------------------------------------------------------:
|------------------------------------------------------------------:


 3/4
   T                  T            T          T
|-12p10p8p7h10-12p10-12p10p8p7h10-12p10p8p7\-12--:
|------------------------------------------------:
|------------------------------------------------:
|------------------------------------------------:
|------------------------------------------------:
|------------------------------------------------:


 4/4
                           ~~~~~~~  T
|-5-12-8-12-7-12-5-12-4-12-5--(5)-----:
|----------------------------------12p:
|-------------------------------------:
|-------------------------------------:
|-------------------------------------:
|-------------------------------------:


 5/4
       T      T    T       T    T    T     T    T    T    T    T     T
|----------------------------------------------------------------------|
|-5h7-12p7s8-12p7-12p8s10-12p7-12p8-12p10-12p8-12p7-12p5-12p7-12p7--12-|
|----------------------------------------------------------------------|
|----------------------------------------------------------------------|
|----------------------------------------------------------------------|
|----------------------------------------------------------------------|


 4/4
                                                   \1_____\3___
    T   T   T   T   T   T   T   T
|---------------------------------:---------------------------:
|-5-------------------------------:---------------------------:
|---9p4-9p5-9p2-9p4---------------:---------------------------:
|-------------------9p2-9p4-------:---------------------------:
|---------------------------9p2-9p:=3s6s7s5s10s7p0-7s==10p0---:
|---------------------------------:---------------------------:


 3/4
   \4____/4___\4.5___/4__/3.5__\6_______/            \2.5
|-----------------------------------------------------------------:
|-----------------------------------------------------------------:
|------------------------xs====0---(0)-(0)--[2]b4===(2)---(2)r(2)-:
|-----------------------------------------------------------------:
|-(0)---(0)--(0)----(0)-------------------------------------------:
|-----------------------------------------------------------------:


          \2.5_____________________________
          ~~~~~~~~~~~~                ~~~~
|-------------------------0--12----------||
|-------------------------0--15b17--(15)-||
|-[2]b3--(2)-----(2)h=3/--0--------------||
|-------------------------0--------------||
|----------------------------------------||
|----------------------------------------||


  Slower Q=120
 4/4
   TP TP TP TP TP TP TP TP   TP TP TP TP TP TP TP TP   TP TP TP TP TP TP TP TP
|-12-16-19-17-16-17-14-16-:-12-16-19-17-16-17-14-16-|-12-16-19-17-16-17-14-16-|
|-------------------------:-------------------------|-------------------------|
|-------------------------:-------------------------|-------------------------|
|-------------------------:-------------------------|-------------------------|
|-------------------------:-------------------------|-------------------------|
|-------------------------:-------------------------|-------------------------|


   TP TP TP TP TP TP TP TP   TP TP TP TP TP TP TP TP
|-12-16-19-17-16-17-14-16-|-12-16-19-17-16-17-14-16--|
|-------------------------|--------------------------|
|-------------------------|--------------------------|
|-------------------------|--------------------------|
|-------------------------|--------------------------|
|-------------------------|--------------------------|


   TP TP TP TP TP TP TP TP        TP            TP         ~~~~~
|-12-14-16-17-19-21-22-22b24==:=(22)--------:-(22)--------22----(22)r--||
|-----------------------------:-------------:-------------22b23-(22)s0-||
|-----------------------------:-------------:--------------------------||
|-----------------------------:-------------:--------------------------||
|-----------------------------:-------------:--------------------------||
|-----------------------------:-------------:--------------------------||


  Faster Q=160
                                             2/4
                          T   T         T           T     T
|-------------------------------------------:-----------------(3)--:
|-3h5p3p0h5p3p0h5p3p0h5p3-8p7-8p7p3p0h7-8p7p:=3p0h7-8p7p3-8p7p=3p0-:
|-------------------------------------------:----------------------:
|-------------------------------------------:----------------------:
|-------------------------------------------:----------------------:
|-------------------------------------------:----------------------:


 4/4
        T   T   T
|---------------------------:
|---------------------------:
|-2b4=======7-2-5p2r(2)-0-2s:
|-------5p2-----------------:
|---------------------------:
|---------------------------:


|---------------------------------------------------:
|------3h5p3p0h5p3p0--------------------------------:
|-4p=2---------------[2]b4r(2)p0--------------------:
|--------------------------------2------------------:
|----------------------------------[2]-[0]----------:
|------------------------------------------[3]-3p0--:


 5/4                                    4/4
                  ~~~
|----------------------3-(3)--3--3-----:----------------||
|----------------------3-(3)--3--3-----:----------------||
|----------------------0-(0)--0--0-----:----------------||
|--------------------------------------:----------------||
|----------------------2-(2)--2----x/--:-------7s12S4s7-||
|-3b5r(3)b7==(3)r(3)---0-(0)--0----x/--:----------------||


  Slower Q=132
                                                     5/4
                                                      ~
|---------------------------------------------------:-----------------------|
|---------------------------------------------------:-----------------------|
|-------------5p0---------5-5-7-9-9-0-9-0-11-9tr11--:-9-----(9)-------------|
|-5h7-7-7-7-7-----7-7-7-7---------------------------:-----------------------|
|---------------------------------------------------:--------------7s12-----|
|---------------------------------------------------:-------------------3s7-|


 4/4                                           5/4
|---------------------------------------------:-----------------------------:
|---------------------------------------------:-----------------------------:
|-----------------------------5-5p0-4-------7-:-4tr6----(4)-----------------:
|-------------5p0---------5p0---------7-4-4---:-----------------------------:
|-5-7-7-7-7-7-----7-7-7-7---------------------:-------------x-x-x-x--11S4s7-:
|---------------------------------------------:-------------x-x-x-x---------:


 2/4                       3/8
|-------------------------:-----------------:
|-------------------------:-----6-6-x-x-x-7-:
|-------------5p0---------:-5p0-------------:
|-5h7-7-7-7-7-----7-7-7-7-:-----------------:
|-------------------------:-----------------:
|-------------------------:-----------------:


 4/4
                                 T
|----------------------------------------:
|-5h7p5h7p5h7p5h7s5p3h5p3h5p3h5--3(19)h5-:
|----------------------------------------:
|----------------------------------------:
|----------------------------------------:
|----------------------------------------:


 2/4                 5/8
|-------------------:-----------------------||
|-3s1h3p1h3p1h3p1h3-:-1s0h2p0h2p0h2p0h2p0h2-||
|-------------------:-----------------------||
|-------------------:-----------------------||
|-------------------:-----------------------||
|-------------------:-----------------------||


  (C#m)
 5/4
  T      T     T     T     T     T     T     T     T     T
|--------------------------------------------------------------:
|-9p2h5-10p2h5-9p2h5-9p2h5-9p2h5-9p2h5-9p2h5-9p2h5-9p2h5-9p2h5-:
|--------------------------------------------------------------:
|--------------------------------------------------------------:
|--------------------------------------------------------------:
|--------------------------------------------------------------:


 4/4
  T      T     T     T     T     T     T     T
|--------------------------------------------------|
|-9p2h5-10p2h5-9p2h5-9p2h5-9p2h5-9p2h5-9p2h5-9p2h5-|
|--------------------------------------------------|
|--------------------------------------------------|
|--------------------------------------------------|
|--------------------------------------------------|


  (A)
   T      T      T      T      T      T      T      T
|-----------------------------------------------------------:
|-10p2h5-10p2h5-10p2h5-10p2h5-10p2h5-10p2h5-10p2h5-10p2h5s7-:
|-----------------------------------------------------------:
|-----------------------------------------------------------:
|-----------------------------------------------------------:
|-----------------------------------------------------------:


  (A°7)                                     (B)
   T      T      T      T      T      T      T      T
|--------------------------------------------------------------|
|-10p4h7-10p4h7-10p4h7-10p4h7-10p4h7-10p4h7-12p4h7-12p4h7s9----|
|--------------------------------------------------------------|
|--------------------------------------------------------------|
|--------------------------------------------------------------|
|--------------------------------------------------------------|


  (E)
   T      T      T      T      T      T      T      T
|---------------------------------------------------------:
|-12p5h9-12p5h9-12p5h9-12p9p5-12p5h9-12p5h9-12p5h9-12p5h9-:
|---------------------------------------------------------:
|---------------------------------------------------------:
|---------------------------------------------------------:
|---------------------------------------------------------:


  (C)
 3/4
   T      T      T      T      T      T
|---------------------------------------------:
|-13p5h8-13p5h8-13p5h8-13p9p8-13p5h8-13p5h8---:
|---------------------------------------------:
|---------------------------------------------:
|---------------------------------------------:
|---------------------------------------------:


  (Csus2)                   (D)
 3/8                       3/4
   T      T      T           T       T       T       T       T       T
|-------------------------:-------------------------------------------------:
|-15p5h8-15p5h8-15p5h8s10-:-15p7h10-15p7h10-15p7h10-15p7h10-15p7h10-15p7h10-:
|-------------------------:-------------------------------------------------:
|-------------------------:-------------------------------------------------:
|-------------------------:-------------------------------------------------:
|-------------------------:-------------------------------------------------:


  (Dsus2)
 3/8
   T       T          T
|--------------------------------:
|-15p7h10-15s17p7h10-17p7h10s12--:
|--------------------------------:
|--------------------------------:
|--------------------------------:
|--------------------------------:


  (E)
 4/4
   T       T       T       T       T       T       T       T
|-----------------------------------------------------------------:
|-17p9h12-17p9h12-17p9h12-17p9h12-17p9h12-17p9h12-17p9h12-17p9h12-:
|-----------------------------------------------------------------:
|-----------------------------------------------------------------:
|-----------------------------------------------------------------:
|-----------------------------------------------------------------:


   T       T       T       T       T       T               T          T
|-------------------------------------------------------------------------|
|-17p9h12-17p9h12-17p9h12-17p9h12-17p9h12-17p9h12-17p9h12-17p9h12s15-17p==|
|-------------------------------------------------------------------------|
|-------------------------------------------------------------------------|
|-------------------------------------------------------------------------|
|-------------------------------------------------------------------------|


  (E7)              (E°7)             (Am)              (E)
         T        T        T        T        T        T       T        T
|------------------------------------------------------------------------:
|-12h15-17p12h15-17p11h14-17p11h14-17p10h13-17p10h13-17p9h12-17h19p12-17p:
|------------------------------------------------------------------------:
|------------------------------------------------------------------------:
|------------------------------------------------------------------------:
|------------------------------------------------------------------------:


  (E7)              (E°7)             (Am)              (E)
         T        T        T        T        T        T       T           T
|---------------------------------------------------------------------------|
|-12h15-17p12h15-17p11h14-17p11h14-17p10h13-17p10h13-17p9h12-17h19p12s13-15-|
|---------------------------------------------------------------------------|
|---------------------------------------------------------------------------|
|---------------------------------------------------------------------------|
|---------------------------------------------------------------------------|


  (D7)              (D°7)           (Gm)            (D)
         T        T       T       T       T       T       T         T
|---------------------------------------------------------------------:
|-10h13-15p10h13-15p9h12-15p9h12-15-8h11-15p8h11-15p7h10-15p7s8h11-12p:
|---------------------------------------------------------------------:
|---------------------------------------------------------------------:
|---------------------------------------------------------------------:
|---------------------------------------------------------------------:


  (C7)            (C°7)           (Fm)          (C)
        T       T       T       T      T      T      T      T
|--------------------------------------------------------------|
|-8h11-13p8h11-13p7h10-13p7h10-13p6h9-13p6h9-13p5h8-13p5h8-12p=|
|--------------------------------------------------------------|
|--------------------------------------------------------------|
|--------------------------------------------------------------|
|--------------------------------------------------------------|


    Slower Q=122
    (B)
         T      T      T      T      T      T      T      T
||----------------------------------------------------------:
||o-4h7-12p4h7-12p4h7-12p4h7-12p4h7-12p4h7-12p4h7-12p4h8-12p:
||----------------------------------------------------------:
||----------------------------------------------------------:
||o---------------------------------------------------------:
||----------------------------------------------------------:


  (Em)
       T      T      T      T      T      T      T      T
                                                            7x
|-----------------------------------------------------------||
|-5h8-12p5h8-12p5h8-12p5h8-12p5h8-12p5h8-12p5h8-12p5h8-12p=o||
|-----------------------------------------------------------||
|-----------------------------------------------------------||
|----------------------------------------------------------o||
|-----------------------------------------------------------||


  (B)
       T      T      T      T      T      T      T      T
|---------------------------------------------------------|
|-4h7-12p4h7-12p4h7-12p4h7-12p4h7-12p4h7-12p4h7-12p4h8-12p|
|---------------------------------------------------------|
|---------------------------------------------------------|
|---------------------------------------------------------|
|---------------------------------------------------------|


       T      T      T      T      T      T      T      T
|-----------------------------------------------------------:
|-5h8-12p4h7-12p5h8-12p4h7-12p5h8-12p4h7-12p5h8-12p4h7-12p==:
|-----------------------------------------------------------:
|-----------------------------------------------------------:
|-----------------------------------------------------------:
|-----------------------------------------------------------:


       T      T      T      T      T      T      T      T
|---------------------------------------------------------|
|-5h8-12p4h7-12p5h8-12p4h7-12p5h8-12p4h7-12p5h8-12p4h7-12-|
|---------------------------------------------------------|
|---------------------------------------------------------|
|---------------------------------------------------------|
|---------------------------------------------------------|


                                                            (Em)
       T      T      T      T      T      T      T      T
|---------------------------------------------------------:-------------*|
|-5h8-12p4h7-12p5h8-12p4h7-12p5h8-12p4h7-12p5h8-12p4h7-12p:=5-----------*|
|---------------------------------------------------------:-------------*|
|---------------------------------------------------------:-----x\------*|
|---------------------------------------------------------:-----x\------*|
|---------------------------------------------------------:-----x\------*|



Comments