Van Duser Guy - Stars And Stripes Forever Chords & Tabs

 

Van Duser Guy Chords & Tabs

Version: 1 Type: Tab 0 ratings
1 star 2 stars 3 stars 4 stars 5 stars
comments

Stars And Stripes Forever Tab

#----------------------------------PLEASE NOTE---------------------------------#
#This file is the author's own work and represents their interpretation of the #
#song. You may only use this file for private study, scholarship, or research. #
#------------------------------------------------------------------------------##
From: gbowerma@acs.ucalgary.ca (Geoffrey Bowerman)
Subject: TAB: Stars and Stripes Forever : Guy van Duser

Well, I finally got around to typing this up, and just in
time for your Fourth of July.  So I guess that makes it
a birthday present.  Thanks for Velcro, Stratocasters,
and Dennis Miller, you imperialist dogs ;)

Warning - this is tough.  And it's the easy part.  Guy
Van Duser does the whole thing on "American Fingerstyle
Guitar", Rounder Records.

                "The Stars and Stripes Forever" (excerpt)
                      Guy Van Duser : arrangement, 
                      John Philip Sousa : Composer

This is the main melody - the bit children learn as 
"Be kind to your web-footed friends, for a duck may 
be somebody's mother"

-------------|-0----------|------------|------------|
-------0-----|-------3--2-|-2--------2-|-2----------|
-------------|----2-----2-|----2--5--2-|-2----------|
-------------|----2-----2-|----2-----2-|------------| 
-------------|-0-----0----|-0----------|-0----0--0H4|
-0--2--4-----|------------|-------0----|---0-0-0----| 

-------------|------------|------------|------------|
-----------2-|-2--------2-|-5-----2--5-|-3----------|
----2--5---2-|----2--5--2-|----2-----2-|----1-----1-|
-2---------2-|----2-----2-|----2-----2-|----2-----2-| 
-------------|-0----------|-4-----0--4-|-2----------|
-------0-----|-------0----|------------|-------0----| 
[ Tab from: http://www.guitartabs.cc/tabs/v/van_duser_guy/stars_and_stripes_forever_tab.html ]
-------------|------------|------------|------------|
-0---------0-|-0--------0-|-0--------0-|-3----------|
----1------1-|----1--3--1-|----1--3--1-|-1----------|
----0------0-|----0-----0-|----0-----0-|------------| 
-2-----------|-2----------|-2----------|-2---------2|
-------0-----|-------0----|-------0----|--0-0H4-0H4-| 

-------------|----0-----0-|-2-----2----|------------|
------2---0--|-2----------|----3-----1-|-0----------|
-------------|-2----------|----2-----2-|----1-----1-|
2------------|----2-------|-0-----1----|-2--------0-| 
-------------|-0-----2--4-|------------|-------2----|
--0---2---4--|------------|------------|------------| 

-----------0-|-0----------|------------|------------|
-------------|-------3--2-|-2--------2-|-2----------|
----1------1-|----2-----2-|----2--5--2-|-2----------|
----0------0-|----2-----2-|----2-----2-|------------| 
-------------|-0-----0----|-0----------|-0----0--0H4|
-4------0----|------------|-------0----|---0-0-0----|

-------------|------------|------------|------------|
-----------2-|-2-----1--2-|-3--2-------|-0----------|
-----2---5-2-|----4-----4-|----4---4-1-|----1-----0-|
--2--------2-|----3-----3-|----3-----3-|----3-----3-| 
-------------|------------|------------|------------|
---------0---|-4-----4----|-4------4---|-4-----3----| 

-------------|------------|------------|-5----------|
-------------|------------|-1-----0----|----2-----2-|
-2---------2-|-2-----1--2-|----2-----2-|----2-----2-|
----4------4-|----3-----3-|----1-----1-|----2-----2-| 
-------4-----|-------3----|------------|-0----------|
-2-----------|-1----------|-1-----1----|-------0----| 

-------------|-0----------|-0----------|---------|---
----------2--|-2--------2-|-2--------2-|-0-------|---
-----2H4-----|-2---2H4----|-2---2H4--2-|-1-------|--2
-------------|-2----------|-2----------|-0-------|--2 
-0-----------|------------|------------|---------|--4
-------------|------------|------------|---0H2-4-|--5 

Comments