Van - Brown Eyed Girl Chords & Tabs

 

Brown Eyed Girl Chords & Tabs

Van Chords & Tabs

Version: 1 Type: Bass Tab 0 ratings
1 star 2 stars 3 stars 4 stars 5 stars
comments

Brown Eyed Girl Bass Tab

   
Intro: 
G-------------0-----------------
D-----------2-----------0-0-----
A-----2-3-3-----------2-----3-2-
E-3-3-3---------3-3-3-----------

 pLAY IT two times then play the vers.


G-------------0-----------------
D-----------2-----------0-0-----
A-----2-3-3-----------2-----3-2-
E-3-3-3---------3-3-3-----------

Play this a fiew times and then play This:
[ Tab from: http://www.guitartabs.cc/tabs/v/van/brown_eyed_girl_btab.html ]
G-------------0--------------------------------------------
D-----------2-----------0-0---------0-0-----------------0-0
A-----2-3-3-----------2-----3-2-3-3-----------------3-3----
E-3-3-3---------3-3-3-------------------3-3-3-2-0-00-------

Chorus:
G-----------------------------------
D-----------------------------------
A-5-5-5-5-5-5-5-5-5-5-5-5-5-5-5-5-5-
E-----------------------------------

Then play this a fiew times 

G-------------0-----------------
D-----------2-----------0-0-----
A-----2-3-3-----------2-----3-2-
E-3-3-3---------3-3-3-----------

Then it is a solo it goes like this:

G-------------0-----------------
D-----------2-----------0-0-----
A-----2-3-3-----------2-----3-2-
E-3-3-3---------3-3-3-----------
Comments