Vampire Weekend - Holiday Chords & Tabs

 

Holiday Chords & Tabs

Vampire Weekend Chords & Tabs

Version: 2 Type: Bass Tab 0 ratings
1 star 2 stars 3 stars 4 stars 5 stars
comments

Holiday Bass Tab

Resubmitting, by emad's advice from the "WTF? Where is my tab?!?!" thread in the forums: 
http://www.ultimate-guitar.com/forum/showthread.php?t=816400&page=221&pp=20

I wrote this referencing DhruvlukeMusic's cover on YouTube (http://youtu.be/7iTnIMW8eqY).
If you see any mistakes or room for improvement, post your corrections and I'll happily 
make edits.


"Holiday"
Vampire Weekend
from: "Heaven" (2010)

Intro 
G|---------------------7--------|
D|--------------5h6h7-----------|
A|-4--5----5--------------------|
E|------------------------------|  x4


Verse (lyrics enter)
G|---------------------7--|---------------------7--|
D|--------------5h6h7-----|--------------5h6h7-----|
A|-4--5----5--------------|-4--5----5--------------|
E|------------------------|------------------------|  \
                                                       x2
G|------------------------------------------------|   /
D|-5--7--5--4--5--4-------------------------------|
A|-------------------7--5--4-----------4--5--7--5-|
E|----------------------------7--5--7-------------|


Chorus (*best to think of this first part as 4 bars of quarter notes)
G|------------|------------|------------|------------|
D|------------|-------5--7-|------------|-5--4-------|
A|----2--4--5-|-4--7-------|-5--4--7--5-|-------7--5-|
E|-3----------|------------|------------|------------|   \
                                                          x2
G|------------|------------|---------------------7---|   /
D|------------|-------5--7-|--------------5h6h7------|
A|----2--4--5-|-4--7-------|-4--5----5---------------|
E|-3----------|------------|-------------------------|    

G|---------------------7--------|
D|--------------5h6h7-----------|
A|-4--5----5--------------------|
E|------------------------------|  x3


Verse 2
G|-7-7----------------|-7-7----------------|
D|--------------------|--------------------|
A|--------------------|--------------------|
E|--------------------|--------------------|

G|-7-7-------11-11------|----------------------|
D|----------------------|-11-11----------------|
A|----------------------|----------------------|
E|----------------------|----------------------|

G|-7-7----------------|-7-7----------------|
D|--------------------|--------------------|
A|--------------------|--------------------|
E|--------------------|--------------------|

G|-12-12-------11-11------|-9-9----------------|
D|------------------------|--------------------|
A|------------------------|--------------------|
E|------------------------|--------------------| 


Chorus 2
G|------------|------------|------------|------------|
D|------------|-------5--7-|------------|-5--4-------|
A|----2--4--5-|-4--7-------|-5--4--7--5-|-------7--5-|
E|-3----------|------------|------------|------------|   
[ Tab from: http://www.guitartabs.cc/tabs/v/vampire_weekend/holiday_btab_ver_2.html ]
G|------------|------------|---------------------7---|   
D|------------|-------5--7-|--------------5h6h7------|
A|----2--4--5-|-4--7-------|-4--5----5---------------|
E|-3----------|------------|-------------------------|    

G|-------------6--6--6--6--7--7--7--7----------------|
D|-5--5--5--5--------------------------5--5--5--5----|
A|---------------------------------------------------|
E|---------------------------------------------------|

G|-------------6--6--6--6--|---------------------7---| 
D|-5--5--5--5--------------|--------------5h6h7------|
A|-------------------------|-4--5----5---------------|
E|-------------------------|-------------------------|

G|---------------------7--------|
D|--------------5h6h7-----------|
A|-4--5----5--------------------|
E|------------------------------|  x3


4 BARS OF REST
then


Bridge ("A vegetarian ..."
G|-12-12-12-12-12-12-12-12-6-6-6-6-6-6-6-7-7-7-7-7-7-7-7-----------------|
D|-------------------------------------------------------5-5-5-5-5-5-5-5-|   
A|-----------------------------------------------------------------------|
E|-----------------------------------------------------------------------|  x3

G|-12-12-12-12-12-12-12-12-6-6-6-6-6-6-6-|---------------------7---| 
D|---------------------------------------|--------------5h6h7------|
A|---------------------------------------|-4--5----5---------------|
E|---------------------------------------|-------------------------|

G|---------------------7--------|
D|--------------5h6h7-----------|
A|-4--5----5--------------------|
E|------------------------------|  x3


Verse 3 (same as verse 1):
G|---------------------7--|---------------------7--|
D|--------------5h6h7-----|--------------5h6h7-----|
A|-4--5----5--------------|-4--5----5--------------|
E|------------------------|------------------------|  \
                                                       x2
G|------------------------------------------------|   /
D|-5--7--5--4--5--4-------------------------------|
A|-------------------7--5--4-----------4--5--7--5-|
E|----------------------------7--5--7-------------|

Chorus 3 
G|------------|------------|------------|------------|
D|------------|-------5--7-|------------|-5--4-------|
A|----2--4--5-|-4--7-------|-5--4--7--5-|-------7--5-|
E|-3----------|------------|------------|------------|   

G|------------|------------|---------------------7---|   
D|------------|-------5--7-|--------------5h6h7------|
A|----2--4--5-|-4--7-------|-4--5----5---------------|
E|-3----------|------------|-------------------------|    

G|-------------6--6--6--6--7--7--7--7----------------|
D|-5--5--5--5--------------------------5--5--5--5----|
A|---------------------------------------------------|
E|---------------------------------------------------|

G|-------------6--6--6--6--|-------------------------| 
D|-5--5--5--5--------------|-------------------------|
A|-------------------------|-4--5--------------------|
E|-------------------------|-------------------------|

G|-------------------------|
D|-------------------------|
A|-4--5--------------------|
E|-------------------------| x 2

end with a D on the A string (5th fret) and give yourself a pat on the back.

tabbed by bundas74
25/12/13
Comments