Vampire Love Dolls - Shadow Flower Chords & Tabs

 

Shadow Flower Chords & Tabs

Vampire Love Dolls Chords & Tabs

Version: 1 Type: Tab 0 ratings
1 star 2 stars 3 stars 4 stars 5 stars
comments

Shadow Flower Tab

VLD's official site http://www.geocities.com/SunsetStrip/Backstage/3044/

Shadow Flower
Vampire Love Dolls
VLD Ep
Tune 1/2 Step Down
Tabbed By: J Etan

.:Harmonic Intro:. x12
|---------------------------------|
|---------------------------------|     (*= Harmonic)
|-*-*-*-*-*-*-*-*-*-*-*-*-*-*-*-*-|  (on 5th & 6th fret)
|---------------------------------|
|---------------------------------|
|---------------------------------|

.:Pre Chorus:. x2
|-------------------------------------------------------------|
|-------------------------------------------------------------|
|-------------------------------------------------------------|
|-4--4-4-4-4-4-4-4--4-4-4-4-4-4-------------------------------|
|-2--2-2-2-2-2-2-2--2-2-2-2-2-2-5--5-5-5-5-5-5-4--4-4-4-4-4-4-|
|-------------------------------3--3-3-3-3-3-3-2--2-2-2-2-2-2-|

.:Chorus:. x4
|---------------------------|
|---------------------------|
|---------------------------|
|----------------------4----|
|-5----------4---------2----|
|-3----------2--------------|

.:Solo:.
|-------------------------------------|
|-12--12--12--7--7--7--8-7-5-7--7--7--|
|-------------------------------------|
|-------------------------------------|
|-------------------------------------|
|-------------------------------------|

|--------------------------------------------|
|-12--12--12--7--7--7--8-7-5-7-8-7-8-7-8-7-8-|
|--------------------------------------------|
|--------------------------------------------|
|--------------------------------------------|
|--------------------------------------------|

guitar 1
|-----------------------------------|
|-0--0--0--3--3--3--8--7-5-7--7--7--|
|-----------------------------------|
|-----------------------------------|
|-----------------------------------|
|-----------------------------------|
[ Tab from: http://www.guitartabs.cc/tabs/v/vampire_love_dolls/shadow_flower_tab.html ]
guitar 2
|---------------------------------------|
|---------------------------------------|
|---------------------------------------|
|------------------0-2-2~--5--4--2--4--|
|-02~-02~-02~-2----------------------|
|---------------------------------------|

guitar 1
|------------------------------------------|
|-0--0--0--3--3--3--8--7-5-7-8-7-8-7-8-7-8-|
|------------------------------------------|
|------------------------------------------|
|------------------------------------------|
|------------------------------------------|

guitar 2
|-----------------------------------------5---5-7~~-|
|-7-8-7-5-7-8-7-5-7-8-7-5-7-8-7-5-7⁄-5-7---7-------|
|---------------------------------------------------|
|---------------------------------------------------|
|---------------------------------------------------|
|---------------------------------------------------|

.:Break Down:. x8
guitar 1
|-------------------------------------------------------------------|
|-------------------------------------------------------------------|
|-------------------------------------------------------------------|
|-4-4-4-4444-------4-4-4-4444---------------------------------------|
|-2-2-2-2222-/10~~-2-2-2-2222-/10~~-5-5-5-5555-/9~~-4-4-4-4444-/9~~-|
|-----------------------------------3-3-3-3333------2-2-2-2222------|

guitar 2
|------------------------------------------------------|
|------------/8------------/8--------------------------|
|-4-4-4-4444----4-4-4-4444-----------------------------|
|-----------------------------5-5-5-55555-4-4-4-44444--|
|------------------------------------------------------|
|------------------------------------------------------|

End On
|----------|
|----------|
|----------|
|-4--------|
|-2--------|
|----------|

.:OUTLINE:.
Harmonic Intro
Pre Chorus
Chorus
Harmonic Intro
Pre Chorus
Chorus
Pre Chorus
Solo
no guitar 
Harmonic Intro
Pre Chorus
Chorus
Break Down
Comments