Vampire Love Dolls - Poison Ivy Tea Chords & Tabs

 

Poison Ivy Tea Chords & Tabs

Vampire Love Dolls Chords & Tabs

Version: 1 Type: Tab 0 ratings
1 star 2 stars 3 stars 4 stars 5 stars
comments

Poison Ivy Tea Tab

VLD's official site http://www.geocities.com/SunsetStrip/Backstage/3044/

Poison Ivy Tea
Vampire Love Dolls
VLD Ep
Tabbed By: J Etan

.:Intro:.x3
|---------------------------------|
|---------------------------------|
|---------------------------------|
|---------------------------------|
|-8-8-8-4-4-4-5-5-2-2-X-2-X-2-X-2-|
|-6-6-6-2-2-2-3-3-0-0-X-0-X-0-X-0-|

x1
|---------------------------------------------|
|---------------------------------------------|
|---------------------------------------------|
|---------------------------------------------|
|-8-8-8-4-4-4-5-5-2-2-X-2-X-2-X-2-X-2-X-2-X-2-|
|-6-6-6-2-2-2-3-3-0-0-X-0-X-0-X-0-X-0-X-0-X-0-|

.:Verse End Lead:.
|-------------------------------------------------------------------|
|-5⁄------------------------5⁄--------------------------------------|
|----------2⁄-------5⁄---------------2⁄-------5⁄--020202020-|
|-------------------------------------------------------------------|
|-------------------------------------------------------------------|
|-------------------------------------------------------------------|

|------------------------------------------------------5⁄--------|
|-5⁄------------------------5⁄-----------------------------------|
|----------2⁄-------5⁄---------------2⁄--------5⁄----------------|
|----------------------------------------------------------------|
|----------------------------------------------------------------|
|----------------------------------------------------------------|

.:Chorus:.x2
|---------------------------------------------------------------|
|---------------------------------------------------------------|
|---------------------------------------------------------------|
|---------------------------------------------------------------|
|-8-8-8-8-8-8-8-8-7-7-7-7-7-7-7-7-2-2-2-2-2-2-2-5-5-5-5-5-5-5-5-|
|-6-6-6-6-6-6-6-6-5-5-5-5-5-5-5-5-0-0-0-0-0-0-0-3-3-3-3-3-3-3-3-|
[ Tab from: http://www.guitartabs.cc/tabs/v/vampire_love_dolls/poison_ivy_tea_tab.html ]
ending of chorus 
|----------------------------|
|----------------------------|
|----------------------------|
|----------------------------|
|-2----------------2---------|
|-0----------------0--3~~~-0-|

.:Solo:.
|-12-12-12-12-12----15-17-17-15^17^15-------------------|
|-16-16-16-16-16-17---------------------17^15^17---------|
|-------------------------------------------------------14-14--|
|--------------------------------------------------------------|
|--------------------------------------------------------------|
|--------------------------------------------------------------|

|--------------------------------------------17-|
|-------17-------17--------------------15-17-|
|-14-14-----14-14-----14-17-17-14~-14-17---------|
|------------------------------------------------|
|------------------------------------------------|
|------------------------------------------------|

|-----------------19-19-19-17-19-19--12--12-12--12-12-------15-15-------15-15-|
|-12-12-12-12-19-19-19-17-19-19--12--12-12--12-12-------15-15-------15-15-|
|-12-12-12-12--------------------------------------18/19-------18/19-------|
|------------------------------------------------------------------------------|
|------------------------------------------------------------------------------|
|------------------------------------------------------------------------------|

|-----------------19-19-19-17-19-19--12--12-12--12-12-------15-15-------15-15-|
|-12-12-12-12-19-19-19-17-19-19--12--12-12--12-12-------15-15-------15-15-|
|-12-12-12-12--------------------------------------18/19-------18/19-------|
|------------------------------------------------------------------------------|
|------------------------------------------------------------------------------|
|------------------------------------------------------------------------------|

.:Ending:. x8
|-----------------|
|-----------------|
|-----------------|
|-9-9-9-9---8-8-8-|
|-7-7-7-7---6-6-6-|
|-----------------|

.:OUTLINE:.
Intro
Verse(no guitar)
Verse End Lead
Chorus
Verse(no guitar)
Verse End Lead
Chorus
Solo
Ending
Comments