Vamphyer - Unforbiden Chords & Tabs

 

Unforbiden Chords & Tabs

Vamphyer Chords & Tabs

Version: 1 Type: Tab 0 ratings
1 star 2 stars 3 stars 4 stars 5 stars
comments

Unforbiden Tab

   
Band- Vamphyer 
Song- The Unforbiden
Album- Vamphyer
_________________________________

email me at Shawn_dGx@hotmail.com

(w)= Whammy Bar
 /= slide down
 \= slide up
(h)= hammer on
(p)= pull off
(b)= bend
(f)= finger pick
(DIS)= Distortion Pedal
(CHOR)= Chorus Pedal
(FLA)= Flange Pedal
(REV)= Reverb Pedal

   (Intro) x2                 (GTR 2) on second time
e|----5----------------------|      -0(w)|
b|---------------------------|      -0(w)|
G|-------4-------------------|      -----|
D|-----------------2--1--2---|      -----|
A|-----------3--3------------|      -----|
E|-0-------------------------|      -----|

  (DIS)  (GTR 1)   right before verse (after intro solo) 
e|------------------------------13h14---17-------------------------|
b|------------------------------------------14---------------------|
G|----------------------------------------------12h11ph10----------|
D|-----------------------------------------------------------------|
A|-----------------------4h6p4-------------------------------------|
E|---0--8/1-1--54--1--2--------------------------------------------|

[ Tab from: http://www.guitartabs.cc/tabs/v/vamphyer/unforbiden_tab.html ]
e|----------------------------------------------------------------------|
b|----------------------------------------------------------------------|
G|----------------------------------------------------------------------|
D|---------------------------------9------------------------------------|
A|----------------------10--11--7-----7--11--10-------------------------|
E|-8\-1-1--54--65---98---------------------------89---56---45(w)fade out|

     VERSE (DIS)
e|--------------------------------|
b|--------------------------------|
G|-------------6-6-x--------------|
D|-8-8-x-4-4-x-6-6-x-6-6/8-8------|
A|-8-8-x-4-4-x-4-4-x-6-6/8-8------|
E|-6-6-x-2-2-x-----x-4-4/6-6------|

      Chorus (DIS) X3                         
e|--------------------------------------|-----------------------------|
b|--------------------------------------|-----------------------------|
G|-9999999999-3-777777777---8888888888--|-----------------------------|
D|-9999999999---777777777-3-8888888888--|-77777777777--4--------------|
A|-7777777777---555555555---6666666666-3|-XXXXXXXXXXX--4-FADE OUT-----|
E|--------------------------------------|-55555555555--2--------------|


VERSE (DIS)
e|--------------------------------|
b|--------------------------------|
G|-------------6-6-x--------------|
D|-8-8-x-4-4-x-6-6-x-6-6/8-8------|
A|-8-8-x-4-4-x-4-4-x-6-6/8-8------|
E|-6-6-x-2-2-x-----x-4-4/6-6------|

     END 
e|---6--4---6---4---5---2--5---2------------------------|
b|--------------------------------4H5P4-----------------|
G|------------------------------------------------------|
D|---------------------------------------222-2----------|
A|---------------------------------------222-2 LET RING-|
E|---------------------------------------000-0----------|
Comments