Vamos - Tired Chords & Tabs

 

Tired Chords & Tabs

Vamos Chords & Tabs

Version: 1 Type: Tab 0 ratings
1 star 2 stars 3 stars 4 stars 5 stars
comments

Tired Tab

'Tired' Tab
written by Robbie death_is_a_beacon@hotmail.com
original song by Vamos

intro

------------------------------------------------------
----------------------------------------------------4-
---4-4---8-8---4-4---8-8---4-4---8-8---6-6---4-
---4-4---8-8---4-4---8-8---4-4---8-8---6-6---4-
---2-2---6-6---2-2---6-6---2-2---6-6---4-4---4-
-------------------------------------------------------

------------------------------------------------------
----------------------------------------------------4-
---4-4---8-8---4-4---8-8---4-4---8-8---6-6---4-
---4-4---8-8---4-4---8-8---4-4---8-8---6-6---4-
---2-2---6-6---2-2---6-6---2-2---6-6---4-4---4-
-------------------------------------------------------

v1
------------------------------------------------------
------------------------------------------------------------4-
---4-4---8-8---4-4---8-8---4-4---8-8-----------6-6---4-
---4-4---8-8---4-4---8-8---4-4---8-8-----------6-6---4-
---2-2---6-6---2-2---6-6---2-2---6-6-----------4-4---4-
-------------------------------------------------------
Suntears           -             Rain-bow Hang-over
------------------------------------------------------
------------------------------------------------------4-
---4---4---8-8---4-4---8-8---4-4---8-8---6-6---4-
---4---4---8-8---4-4---8-8---4-4---8-8---6-6---4-
---2---2---6-6---2-2---6-6---2-2---6-6---4-4---4-
-------------------------------------------------------
My Time           -             On earth is  wa- sted
[ Tab from: http://www.guitartabs.cc/tabs/v/vamos/tired_tab.html ]
------------------------------------------------------
----------------------------------------------------4-
---4-4---8-8---4-4---8-8---4-4---8-8---6-6---4-
---4-4---8-8---4-4---8-8---4-4---8-8---6-6---4-
---2-2---6-6---2-2---6-6---2-2---6-6---4-4---4-
-------------------------------------------------------
Blueskies                       In    -          Hea- ven
------------------------------------------------------
----------------------------------------------------4-
---4-4---8-8---4-4---8-8---4-4---8-8---6-6---4-
---4-4---8-8---4-4---8-8---4-4---8-8---6-6---4-
---2-2---6-6---2-2---6-6---2-2---6-6---4-4---4-
-------------------------------------------------------
  In                                   Holy Sacre- lidge

ch.

--------------------------------------------------------------------
--------------------------------------------------------------------
------------------------------------------------------------------4-
---4-4---8-8---4-4---8-8---4-4-----8-8---------------6-6---4-
---4-4---8-8---4-4---8-8---4-4-----8-8---------------6-6---4-
---2-2---6-6---2-2---6-6---2-2-----6-6---------------4-4---4-
Take me,                     Take me  Away from    He -   re

------------------------------------------------------
------------------------------------------------------
--------------------------------------------------------4-
---4-4---8-8-------4-4---8-8---4-4---8-8---6-6---4-
---4-4---8-8-------4-4---8-8---4-4---8-8---6-6---4-
---2-2---6-6-------2-2---6-6---2-2---6-6---4-4---4-
I've become so  ti -    red    Dar--ling A-do-re
 
------------------------------------------------------
----------------------------------------------------4-
---4-4---8-8---4-4---8-8---4-4---8-8---6-6---4-
---4-4---8-8---4-4---8-8---4-4---8-8---6-6---4-
---2-2---6-6---2-2---6-6---2-2---6-6---4-4---4-
-------------------------------------------------------

------------------------------------------------------
----------------------------------------------------4-
---4-4---8-8---4-4---8-8---4-4---8-8---6-6---4-
---4-4---8-8---4-4---8-8---4-4---8-8---6-6---4-
---2-2---6-6---2-2---6-6---2-2---6-6---4-4---4-
-------------------------------------------------------

*repeat throughout
v2. 
Follow you down,
Where desert grows,
Kiss you in the twilight,
Where no-one grows,

v3
Rape you,
Rape you in secret,
You,
You can never tell,

same thing all the way through.
Fun & simple kinda like me:s
Comments